Song name
# A B C D E F G H I J K L M N O P Q R S T U V W X Y Z

Leagues - Magic tab

Leagues-Magic

e|------------------------------|
B|------------------------------|
G|------------------------------|
D|------------------------------|
A|--7---7---7-------------------|
E|5---5---5---5-557-7-3---------|

e|------------------------------|
B|------------------------------|
G|------------------------------|
D|------------------------------|
A|--7---7---7-------------------|
E|5---5---5---5-3---------------|

Great band. http://www.leaguesmusic.com/
That's pretty much the whole song.
Tap to rate this tab
# A B C D E F G H I J K L M N O P Q R S T U V W X Y Z