Song name
# A B C D E F G H I J K L M N O P Q R S T U V W X Y Z

Leatherface - Pale Moonlight tab

PALE MOONLIGHT (Leatherface)
figured out by PJ Person


It sounds good enuff to me...so hope u like it..
U have to listen a few times to the way the verse is played and learn the pattern in 
head..but its not too tricky..

intro/verse

E--0-0-0-0-0-0-0-0----------------------------------|
b--5-5-5-5-5-5-5-5----------------------------------|
g--5-5-5-5-5-5-5-5--0-0-0-0-4-4-4-4-5-5-5-5-5-5-5-5-|
d-------------------3-3-3-3-5-5-5-5-7-7-7-7-7-7-7-7-|
a---------------------------------------------------|
e---------------------------------------------------|

E----------------------------------------------------|
b---5-6-7-6-5-5-5-5----------------------------------|
g---5-5-5-5-5-5-5-5------------------4-4-4-4-4-4-4-4-|
d------------------------------------5-5-5-5-5-5-5-5-|
a--------------------5-5-5-5-5-5-5-5-----------------|
e--------------------7-7-7-7-7-7-7-7-----------------| Rpt


Chorus

E---0--------0------------------0------------0---|
b---1----1---1-----1-0-----(H)--1---0---0----1---|
g---2----0---2---------2-0--2---2---0---0----2---|
d---2----0---3------------------2---0---2----3---|
a---0----2---3------------------0---2---2----3---|
e-----------(1)---------------------3---0---(1)--|

Be good to hear your feedback on this..cheers :-)
Tap to rate this tab
# A B C D E F G H I J K L M N O P Q R S T U V W X Y Z