Song name
# A B C D E F G H I J K L M N O P Q R S T U V W X Y Z

Leatherface - Not A Day Goes By tab

1|---------------|---------------|
2|---------------|---------------|
3|-----5-----4-5-|-----5-----4-5-|
4|---------------|---------------|
5|-3-3-----------|-0-0-----------|
6|-------3-3-----|-------0-0-----|

1|---------------|-------------|
2|---------------|-----------5-|
3|-----5-----4-5-|-----5-----5-|
4|---------------|-----------5-|
5|-3-3-----------|-0-0---------|
6|-------3-3-----|-------0-0---|

This riff is also used for the chorus.
Tap to rate this tab
 
# A B C D E F G H I J K L M N O P Q R S T U V W X Y Z