Song name
# A B C D E F G H I J K L M N O P Q R S T U V W X Y Z

Leatherface - Plastic Surgery tab

-------------------------------------------------------------------------------
			     PLASTIC SURGERY - LEATHERFACE
-------------------------------------------------------------------------------
Tabbed by:Pauly Person
Email: philtrum69@hotmail.com

Tuning:standard


verse

    A       F#m     D         A
e|------------------2--2-0---------------------------------------------------|
B|--2--2-3-2--2-----3-------3-------------2----3-3-3-3-3---------------------|
G|--2--2------2-----2---------2------1----2----2-x-2-x-2---------------------|
D|--2--2------4---------------2------2----4------2---2-----------------------|
A|--0---------4---------------0------2----4------0---0-----------------------|
E|------------2----------------------0----2----------------------------------|


Chorus

e|---------------------------------------------------------------------------|
B|----------------------------------3----------------------------------------|
G|--------------2---(3)----1--------2----------------------------------------|
D|--------------4----------2--------0----------------------------------------|
A|--------------4----------2-------------------------------------------------|
E|--------------2----------0-------------------------------------------------|
   Never really been...day dream....leave me smiling




************************************

| /   slide up
| \   slide down
| h   hammer-on
| p   pull-off
| ~   vibrato
| +   harmonic
| x   Mute note
| b   Bend
| pb  Pre-bend
| br  Bend release
| pbr Pre-bend release
| brb Bend release bend

************************************
Tap to rate this tab
# A B C D E F G H I J K L M N O P Q R S T U V W X Y Z