Leathermouth - Im Going To Kill The President Of The Usa tab

Song: I Am Going To Kill The President Of The USA
Artist:LeATHERMOUTH
Album:x

Intro
e|------------------------------------------------------------------------|
B|------------------------------------------------------------------------|
G|------------------------------------------------------------------------|
D|------------------------------------------------------------------------|x4
A|-12-0--12-0-12-0---12-0--12-0-12-0---12-0--12-0-12-0---12-0-11-11-11-11-|
E|-12-0--12-0-12-0---12-0--12-0-12-0---12-0--12-0-12-0---12-0-11-11-11-11-|

Verso 1
e|-------------------------------------------------------------------|
B|-------------------------------------------------------------------|
G|--------------------------10-1010-1010-1010-10-9--9-9--9-8--8-8--8-|
D|---------------------------x--x-x--x-x--x-x--x-x--x-x--x-x--x-x--x-|
A|-0-00-00-00-0-0-00-00-00-0-8--8-8--8-8--8-8--8-7--7-7--7-6--6-6--6-|
E|-0-00-00-00-0-0-00-00-00-0-----------------------------------------|

e|---------------------------------------------------------------------|
B|---------------------------------------------------------------------|
G|---------------------------14-1414-1414-1414-14-13-1313-1312-1212-12-|
D|----------------------------x--x-x--x-x--x-x--x--x--x-x--x-x--x-x--x-|
A|-0-00-00-00-0-0-00-00-00-0-12-1212-1212-1212-12-11-1111-1110-1010-10-|
E|-0-00-00-00-0-0-00-00-00-0-------------------------------------------|

e|------------------------------------------------------------------------|
B|------------------------------------------------------------------------|
G|--------------------------------10-1010-1010-1010-10-9--9-9--98--8-8--8-|
D|---------------------------------x--x-x--x-x--x-x--x-x--x-x--xx--x-x--x-|
A|-0-00-12-1212-12-0-00-12-1212-12-8--8-8--8-8--8-8--8-7--7-7--76--6-6--6-|
E|-0-00-12-1212-12-0-00-12-1212-12----------------------------------------|

e|----------------------------------------------------------------------------|
B|----------------------------------------------------------------------------|
G|----------------------------------14-1414-1414-1414-14-13-1313-1312-1212-12-|
D|-----------------------------------x--x-x--x-x--x-x--x--x--x-x--x-x--x-x--x-|
A|-0-00-12-1212-12-0-00-12-1212-12--12-1212-1212-1212-12-11-1111-1110-1010-10-|
E|-0-00-12-1212-12-0-00-12-1212-12--------------------------------------------|

e|------------------------------------------------------------------------|
B|------------------------------------------------------------------------|
G|------------------------------------------------------------------------|
D|------------------------------------------------------------------------|x4
A|-12-0--12-0-12-0---12-0--12-0-12-0---12-0--12-0-12-0---12-0-11-11-11-11-|
E|-12-0--12-0-12-0---12-0--12-0-12-0---12-0--12-0-12-0---12-0-11-11-11-11-|

Verso 2
e|-------------------------------------------------------------------|
B|-------------------------------------------------------------------|
G|--------------------------10-1010-1010-1010-10-9--9-9--9-8--8-8--8-|
D|---------------------------x--x-x--x-x--x-x--x-x--x-x--x-x--x-x--x-|
A|-0-00-00-00-0-0-00-00-00-0-8--8-8--8-8--8-8--8-7--7-7--7-6--6-6--6-|
E|-0-00-00-00-0-0-00-00-00-0-----------------------------------------|

e|---------------------------------------------------------------------|
B|---------------------------------------------------------------------|
G|---------------------------14-1414-1414-1414-14-13-1313-1312-1212-12-|
D|----------------------------x--x-x--x-x--x-x--x--x--x-x--x-x--x-x--x-|
A|-0-00-00-00-0-0-00-00-00-0-12-1212-1212-1212-12-11-1111-1110-1010-10-|
E|-0-00-00-00-0-0-00-00-00-0-------------------------------------------|






e|------------------------------------------------------------------------|
B|------------------------------------------------------------------------|
G|--------------------------------10-1010-1010-1010-10-9--9-9--98--8-8--8-|
D|---------------------------------x--x-x--x-x--x-x--x-x--x-x--xx--x-x--x-|
A|-0-00-12-1212-12-0-00-12-1212-12-8--8-8--8-8--8-8--8-7--7-7--76--6-6--6-|
E|-0-00-12-1212-12-0-00-12-1212-12----------------------------------------|

e|----------------------------------------------------------------------------|
B|----------------------------------------------------------------------------|
G|----------------------------------14-1414-1414-1414-14-13-1313-1312-1212-12-|
D|-----------------------------------x--x-x--x-x--x-x--x--x--x-x--x-x--x-x--x-|
A|-0-00-12-1212-12-0-00-12-1212-12--12-1212-1212-1212-12-11-1111-1110-1010-10-|
E|-0-00-12-1212-12-0-00-12-1212-12--------------------------------------------|

e|----------------------------------------------------------|
B|----------------------------------------------------------|
G|----------------------------------------------------------|
D|----------------------------------------------------------|
A|-0--0-11-10--0--9-8-88-88-88-8-0--0-6-5--0-4-3-33-33-33-3-|x4
E|-0--0-11-10--0--9-8-88-88-88-8-0--0-6-5--0-4-3-33-33-33-3-|

e|------------------------------------------------------------------------|
B|------------------------------------------------------------------------|
G|------------------------------------------------------------------------|
D|------------------------------------------------------------------------|x2
A|------------------------------------------------------------------------|
E|-12-0--12-0-12-0---12-0--12-0-12-0---12-0--12-0-12-0---12-0-11-11-11-11-|

End
e|------------------------------------------------------------------------|
B|------------------------------------------------------------------------|
G|------------------------------------------------------------------------|
D|------------------------------------------------------------------------|x4
A|-12-0--12-0-12-0---12-0--12-0-12-0---12-0--12-0-12-0---12-0-11-11-11-11-|
E|-12-0--12-0-12-0---12-0--12-0-12-0---12-0--12-0-12-0---12-0-11-11-11-11-|

e|------|
B|------|
G|------|
D|------|
A|-12-0-|
E|-12-0-|

Tap to rate this tab
 
# A B C D E F G H I J K L M N O P Q R S T U V W X Y Z