Song name
# A B C D E F G H I J K L M N O P Q R S T U V W X Y Z

Leathermouth - Leviathan tab

Leviathan 
LeATHERMOUTH
jjjddd

Drop C

-at the start, during the drum intro-
D|--------|
A|--------|
F|--5-----|
C|--5--4--|
G|--3--4--|
C|-----4--|



D|------------------|
A|------------------|
F|------------------|
C|--6-5-4-3-3-------|
G|--4-3-4-5-5-5-----|
C|------4-3-3-3-x11-|                  |
              *                        |x2
D|-------------------------------|     |
A|-------------------------------|
F|-------------------------------|
C|-4-4-3-3-----------------------|x3
G|-4-4-5-5-5-5-5-5-5-5-5-5-5-5-5-|
C|-4-4-3-3-3-3-3-3-3-3-3-3-3-3-3-|
           * * * * * * * * * * *

             -----

D|--------|
A|--------|
F|--------|
C|--6-5-4-|
G|--4-3-4-|
C|------4-|   "hes a killer.."

D|--------------------------------|
A|--------------------------------|
F|--------------------------------|
C|--------------------------------|x3
G|-1--1-1-1-1-1-1-1-1-2-2-2-0-0-0-|
C|--------------------------------|

D|--------------------------|
A|--------------------------|
F|--------------------------|
C|--------------------2-2-2-|
G|-1--1-1-1-1-1-1-1-1-2-2-2-|
C|--------------------2-2-2-|


D|--------------------------|
A|--------------------------|
F|--------------------------|
C|-8--8-8-8-8-8-8-8-8-9-7-7-|x3
G|-8--8-8-8-8-8-8-8-8-9-7-7-|
C|-8--8-8-8-8-8-8-8-8-9-7-7-|

D|--------------------------|
A|--------------------------|
F|--------------------------|
C|-8--8-8-8-8-8-8-8-8-2-2-2-|
G|-8--8-8-8-8-8-8-8-8-2-2-2-|
C|-8--8-8-8-8-8-8-8-8-2-2-2-|




D|-------------------------------|
A|-------------------------------|
F|-------------------------------|
C|-3-3-----------------------4-4-|x3
G|-5-5-5-5-5-5-5-5-5-5-5-5-5-4-4-|
C|-3-3-3-3-3-3-3-3-3-3-3-3-3-4-4-|
       * * * * * * * * * * *
                                           x2
D|---------------------------------|
A|---------------------------------|
F|---------------------------------|
C|-3-3-----------------------6-5-4-|
G|-5-5-5-5-5-5-5-5-5-5-5-5-5-4-3-4-|
C|-3-3-3-3-3-3-3-3-3-3-3-3-3-----4-|
       * * * * * * * * * * *



D|--------------------------------|
A|--------------------------------|
F|--------------------------------|
C|--------------------------------|x3
G|-1--1-1-1-1-1-1-1-1-2-2-2-0-0-0-|
C|--------------------------------|

D|--------------------------|
A|--------------------------|
F|--------------------------|
C|--------------------2-2-2-|
G|-1--1-1-1-1-1-1-1-1-2-2-2-|
C|--------------------2-2-2-|

D|--------------------------|
A|--------------------------|
F|--------------------------|
C|-8--8-8-8-8-8-8-8-8-9-7-7-|x3
G|-8--8-8-8-8-8-8-8-8-9-7-7-|
C|-8--8-8-8-8-8-8-8-8-9-7-7-|

D|--------------------------|
A|--------------------------|
F|--------------------------|
C|-8--8-8-8-8-8-8-8-8-2-2-2-|
G|-8--8-8-8-8-8-8-8-8-2-2-2-|
C|-8--8-8-8-8-8-8-8-8-2-2-2-|



-end-
D|--------------------------|
A|--------------------------|
F|--------------------------|
C|-1--1-1-1-1-1-1-1-1-2-0-0-|x3
G|-1--1-1-1-1-1-1-1-1-2-0-0-|
C|-1--1-1-1-1-1-1-1-1-2-0-0-|
                                          x2
D|--------------------------|
A|--------------------------|
F|--------------------------|
C|-1--1-1-1-1-1-1-1-1-0-0-0-|
G|-1--1-1-1-1-1-1-1-1-0-0-0-|
C|-1--1-1-1-1-1-1-1-1-0-0-0-|
Tap to rate this tab
# A B C D E F G H I J K L M N O P Q R S T U V W X Y Z