Song name
# A B C D E F G H I J K L M N O P Q R S T U V W X Y Z

Leathermouth - Sunsets Are For Muggers tab

Help us improve GuitareTab! Take a short survey!
Another Leathermouth tab Ive decided to put out, just love this band! Only whished that
I had better ears or some kind of magicpower so that I could hear what kind of words Franks 
sreaming out or...make him put out the lyrics on myspace!!! :D  But I cant, so here is the tab, people! 

E|-------|
B|-------|
G|-8-10--|4x
D|-8-10--|
A|-6/8---|
E|-------|

E|------------------------------|
B|------------------------------|
G|-8-10-10-10-10-10-13-10-10-10-|
D|-8-10-10-10-10-10-x--10-10-10-| 4X
A|-6/8--8--8--8--8--11-8--8--8--|
E|------------------------------|

E|------------|
B|------------|
G|------------| 4x
D|-8-8-8-8----|
A|-8-8-8-8----|
E|-6-6-6-6----|

E|------------------------------|
B|------------------------------|
G|-8-10-10-10-10-10-13-10-10-10-|
D|-8-10-10-10-10-10-x--10-10-10-| 4X
A|-6/8--8--8--8--8--11-8--8--8--|
E|------------------------------|

E|------------|
B|------------|
G|------------| 4x
D|-8-8-8-8----|
A|-8-8-8-8----|
E|-6-6-6-6----|

E|------------------------------|
B|------------------------------|
G|-8-10-10-10-10-10-13-10-10-10-|
D|-8-10-10-10-10-10-x--10-10-10-| 4X
A|-6/8--8--8--8--8--11-8--8--8--|
E|------------------------------|

E|-----------|
B|-----------|
G|-----------| 4x the 4th time just let it ring ["Pause"]
D|-8-8-8-8---|
A|-8-8-8-8---|
E|-6-6-6-6---|

E|---------|
B|---------|
G|-10-10---|
D|-10-10---|
A|-8--8----|
E|---------|

E|-------------------------------|
B|-------------------------------|
G|-13-13-10-10-10-10-10-10-10-10-|
D|-x--x--10-10-10-10-10-10-10-10-|
A|-11-11-8--8--8--8--8--8--8--8--|
E|-------------------------------|

E|-----------------|
B|-----------------|
G|-8-8-8-8-8-8-8-8-|
D|-8-8-8-8-8-8-8-8-|
A|-6-6-6-6-6-6-6-6-|
E|-----------------|

E|--------------------------|
B|--------------------------|
G|-15-15-15-15-15-15-15-15--|
D|-x--x--x--x--x--x--x--x---|
A|-13-13-13-13-13-13-13-13--|
E|--------------------------|

E|-------------------------|
B|-------------------------|
G|-11-11-11-11-11-11-11----|
D|-11-11-11-11-11-11-11----|
A|-9--9--9--9--9--9--9-----|
E|-------------------------|

E|----------------------------------|
B|----------------------------------|
G|-13-13-8/-10-10-10-10-10-10-10-10-|
D|-x--x--8/-10-10-10-10-10-10-10-10-|
A|-11-11-6/-8--8--8--8--8--8--8--8--|
E|----------------------------------|

E|-----------------|
B|-----------------|
G|-8-8-8-8-8-8-8-8-|
D|-8-8-8-8-8-8-8-8-|
A|-6-6-6-6-6-6-6-6-|
E|-----------------|

E|--------------------------|
B|--------------------------|
G|-15-15-15-15-15-15-15-15--|
D|-x--x--x--x--x--x--x--x---|
A|-13-13-13-13-13-13-13-13--|
E|--------------------------|

E|-------------------------|
B|-------------------------|
G|-11-11-11-11-11-11-11----|
D|-11-11-11-11-11-11-11----|
A|-9--9--9--9--9--9--9-----|
E|-------------------------|

E|--------------------------|
B|--------------------------|
G|-15----------13-----------|
D|-x--15-15-15-x--13-13-13--| 4X
A|-13-x--x--x--11-x--x--x---|
E|----13-13-13----11-11-11--|

E|-----------|
B|-----------|
G|-15--------| The End
D|-x--13-15--|
A|-13-x--x---|
E|----11-13--|

Thats all...any thoughts about this just mail me at winnie91@hotmail.com
Related for Sunsets Are For Muggers tab