Guitaretab - guitar tabs
Song name
# A B C D E F G H I J K L M N O P Q R S T U V W X Y Z

Leb I Sol - Uci Me Majko Karaj Me tab

intro: Dm
Dm Em F, Dm Em F, Dm Em F, Dm C Dm

   Dm Em F Dm C Dm 2x
   Dm Em F Dm C Dm 2x


2: F, Dm C G, Dm Em F Dm C Dm


 Dm C G Dm 4x
 F, Dm C G B (A) Dm

< intro>

Dm
Uci me majko, karaj me
Kako da ja zemam Ljiljana
Ljiljana moma ubava
                   F
Ljiljana temka visoka
Dm C     G    B  A  Dm
Ljiljana edna ta majka
Dm C     G    B  A  Dm
Ljiljana edna ta majka
Dm C     G    B  C  Dm
Ljiljana edna ta majka


***VERSION 2***


E-----------------------------------------------------------------|
H-----------------------------------------------------------------|
G-7/10b\9-7h9-7\5-7/9-7-7----7-9-10\910b-10\9-7h9b-7\5-7/9-7-7--|
D---------------------------10------------------------------------|
A-----------------------------------------------------------------|
E-----------------------------------------------------------------|

E---------------------------------------------------------------|
H---------------------------------------------------------------|
G----7h9-10b\9-10b\9-7h9-7\5-7/9-7-7----7-9-10\9-10b-10\9-7h9b--|
D--10---------------------------------10------------------------|
A---------------------------------------------------------------|
E---------------------------------------------------------------|

E----------------------------|
H----------------------------|
G-7\5-7/9-7-7----9p7h9-7-\--|
D---------------10-----------|
A----------------------------|
E----------------------------|

E--------------------|
H--------------------|
G--------------------|  4x
D----7--7--7------7--|
A--x-5--5--5-0-3b-5--|
E--------------------|

E---------------------------------------------------|
H-18b\17-15h17-15\13-15/17-15-15----15-17-18b\17---|
G----------------------------------17---------------|
D---------------------------------------------------|
A---------------------------------------------------|
E---------------------------------------------------|

E-----------------------------------------------------|
H-18b-18b\17-15h17-15\13-15/17-15-15----15-17-18\17--|
G--------------------------------------17-------------|
D-----------------------------------------------------|
A-----------------------------------------------------|
E-----------------------------------------------------|

E---------------------------------------------------|
H-18b\17-15h17-15\13-15/17-15-15----15-17-18b\17---|
G----------------------------------17---------------|
D---------------------------------------------------|
A---------------------------------------------------|
E---------------------------------------------------|

E---------------------------------------------------------|
H-17h18-18b\17-15h17-15\13-15/20-15-15----17p15h17-15-\--|
G----------------------------------------17---------------|
D---------------------------------------------------------|
A---------------------------------------------------------|
E---------------------------------------------------------|

E-13h15-1717h18p17-17/20-------------|
H-------------------20-----20-20\18-20--|
G---------------------------------------|
D---------------------------------------|
A---------------------------------------|
E---------------------------------------|
[ Tab from: http://www.guitaretab.com/l/leb-i-sol/107275.html ]
E----------------------------------------------|
H-17b--17-15\13-15/20-15-15----17p15h17-15-\--|
G-----------------------------17---------------|
D----------------------------------------------|
A----------------------------------------------|
E----------------------------------------------|

E--------------------|
H--------------------|
G--------------------|  4x
D----7--7--7------7--|
A--x-5--5--5-0-3b-5--|
E--------------------|

E---------------------------------------------------|
H-18b\17-15h17-15\13-15/17-15-15----15-17-18b\17---|
G----------------------------------17---------------|
D---------------------------------------------------|
A---------------------------------------------------|
E---------------------------------------------------|

E-----------------------------------------------------|
H-18b-18b\17-15h17-15\13-15/17-15-15----17p15h17-15--|
G--------------------------------------17-------------|
D-----------------------------------------------------|
A-----------------------------------------------------|
E-----------------------------------------------------|

E-----------------------------------------------------|
H--17-18b\17-15h17-15\13-15/20-15-15----15-17-18b\17--|
G-------------------------------------17--------------|
D-----------------------------------------------------|
A-----------------------------------------------------|
E-----------------------------------------------------|

E-------------------------------------------------------|
H-18b-18b\17-15h17-15\13-15/20-15-15----17p15h17-15-\--|
G--------------------------------------17---------------|
D-------------------------------------------------------|
A-------------------------------------------------------|
E-------------------------------------------------------|

E-13h15-17-17h18p17-17h18p17-17h18p17-17/20-------------|
H--------------------20--------20--------20-----20-20\18-20--|
G------------------------------------------------------------|
D------------------------------------------------------------|
A------------------------------------------------------------|
E------------------------------------------------------------|

E----------------------------------------------------|
H-17b--15h17-15\13-15/20-15\13-15----17p15h17-15-\--|
G-----------------------------------17---------------|
D----------------------------------------------------|
A----------------------------------------------------|
E----------------------------------------------------|


After singing play this


E-13h15-1717h18p17-17/20-------------|
H-------------------20-----20-20\18-20--|
G---------------------------------------|
D---------------------------------------|
A---------------------------------------|
E---------------------------------------|

E--------------------------------------------|
H-17b--17-15\13-15/20-15-15----17p15h17-15--|
G-----------------------------17-------------|
D--------------------------------------------|
A--------------------------------------------|
E--------------------------------------------|

E--------------------------------------------|
H-17b--17-15\13-15/20-15-15----17p15h17-15--|
G-----------------------------17-------------|
D--------------------------------------------|
A--------------------------------------------|
E--------------------------------------------|

E----------------------------------------------|
H-17b--17-15\13-15/20-15-15----17p15h17-\-----|
G-----------------------------17---------------|
D------------------------------------------7---|
A------------------------------------------5---|
E----------------------------------------------|
Related for Uci Me Majko Karaj Me tab