Guitaretab - guitar tabs
Song name
# A B C D E F G H I J K L M N O P Q R S T U V W X Y Z

Leb I Sol - Skopje tab

Song: Skopje
Autor:  Leb i Sol
Edited by: Radko Kuzmanov - Macedonia

Intro:

e|---------|-------|----------|---------|-------|----------|-------------------|
H|---------|-------|--------8-|---------|-------|--------8-|-------------------|
G|-8h7-5---|---5---|--8h7-5---|-8h7-5---|---5---|--8h7-5---|-9h10p9-7h9p7-5--5-|
D|-------5-|-5---5-|----------|-------5-|-5---5-|----------|----------------5--|
A|---------|-------|----------|---------|-------|----------|-------------------|
E|---------|-------|----------|---------|-------|----------|-------------------|

Akordi: G     - 355433   Em - 022000
        Cadd6 - x35555   D  - xx0232

"Cadd6" - original played by 1-guitar


E||---|---|---|---|-5-|--
B||---|---|---|---|-5-|--
G||---|---|---|---|-5-|--
D||---|---|---|---|-5-|--
A||---|---|-3-|---|---|--
E||---|---|-x-|---|---|--

[ Tab from: http://www.guitaretab.com/l/leb-i-sol/116471.html ]
 G      Cadd6 G     Cadd6
 Skopje ima   mikro klima 
 Izgor leto kocan zima
 Gradski cigli goli brda 
 Sino nebo zemlja tvrda

 C     Em   C     D
 Je je je   Da da da


 Maten Vardar brzo tece
 Tajnu nosi vreme vlece
 Skopje pravi padni stani
 Ima devet luti rani

 Je je je   Da da da

 Cm
 Nasmevni se, ne beri gajle
 Namigni mi, ajde na zdravje... Skopje!

e|-------------------|
H|-------------------|
G|-9h10p9-7h9p7-5--5-|
D|----------------5--|
A|-------------------|
E|-------------------|

 Gradov posti gradov pije
 Gradov dreme gradov spie
 Rano utro skembe corba
 Posle sekoj svoja borba

 Je je je   Da da da

 Mladi momi ljubov vodat
 Dusa vadat oci bodat
 Razni pelji prava deca
 Site cergi baba meca
 He he he
 Da da da
 
 Nasmevni se, ne beri gajle
 Namigni mi, ajde na zdravje... Skopje!

Jas i ti sme braka stari 
takva ljubov cini pari 
ti me cuvas ti me svakas
ti za kusur ne mi fakas

 Je je je   Da da da

 Nasmevni se, ne beri gajle
 Namigni mi, ajde na zdravje... Skopje!
Related for Skopje tab
×
Skopje