Song name
# A B C D E F G H I J K L M N O P Q R S T U V W X Y Z

Leb I Sol - Busava Azbuka tab

        F#             C#         H           F#          C#      H
E---------------------------9~------7-------------------------9----7-|
B-------7--9-9b11-9-7~-6~-------6h7----------7-9-9b11-9-7~-6----7----|
G--6h8----------------------------------6h8--------------------------|
D--------------------------------------------------------------------|
A--------------------------------------------------------------------|
E--------------------------------------------------------------------|

E-------------6-9-7-6-----9/11\9----9/11\9----6-9-6----7-9-6-----6---6-7-9~-|
B-7-6-----7-9---------9-7--------7---------7--------7--------7-----7--------|
G-----8-6-------------------------------------------------------------------|
D---------------------------------------------------------------------------|
A---------------------------------------------------------------------------|
E---------------------------------------------------------------------------|

E-------------6-9-7-6-----9/11\9----9/11\9----6-9-6----7-9-6---6---------|
B-7-6-----7-9---------9-7--------7---------7--------7--------7---7-9---7-|
G-----8-6------------------------------------------------------------6---|
D------------------------------------------------------------------------|
A------------------------------------------------------------------------|
E------------------------------------------------------------------------|
      F#              C# H      F#              C#             H
E---------6-7-9---9---11~------------6-7-9---9--11-9-7-9-7-6-7-6---6---------|
B-----7-9-------7---------------7-9--------7---------------------9---9-7-6---|
G-6h8-----------------------6h8--------------------------------------------6-|
D----------------------------------------------------------------------------|
A----------------------------------------------------------------------------|
E----------------------------------------------------------------------------|
   F#   C#    H                   F#
E-------------------------------------|
B--7~-----------------------------7-9-|
G-----6-----------------------6h8-----|
D-------9-8-6-8-6---6-----------------|
A-----------------9---9-8---9---------|
E-------------------------9-----------|


   C#             H            F#
E-6-7-9---9-11-9-7-6-7-6---6--------------------------------|
B-------7----------------9---9-7-6-7---------------------7~-|
G------------------------------------6-------6--------------|
D--------------------------------------9-8-9---9-8-6-8-6----|
A-----------------------------------------------------------|
E-----------------------------------------------------------|
Tap to rate this tab
 
# A B C D E F G H I J K L M N O P Q R S T U V W X Y Z