Song name
# A B C D E F G H I J K L M N O P Q R S T U V W X Y Z

Leb I Sol - Ova E Balkan tab

riff1
-------------------------------------------|
-------------------------------------------|
----4---4---4---4-----4--------------------|
----4---4---4---4-----4--------------------|
--0-2-0-2-0-2-0-2---0-2--------------------|
-------------------------------------------|

riff2
-------------------------------------------|
-------------------------------------------|
-------------------------------------------|
--------------11---------14--9-------------|
-6-7-9-8---11-11------14-14--9-------------|
---------9----9----12----12--7-------------|

riff3
--------------------------------------------------------|
--------------------------------------------------------|
-----------------------------------9b11-7---9b11-9b11-7-|
------------------------------------------9-------------|
-6-7-9-8---x-11-11-11-11-12-13-14-----------------------|
---------9-x-9--9--9--9--10-11-12-----------------------|

H                  G#m
Sajber vreminja, a sliki biblijski
G                  E             (F#7)
Ne mu ide pamet na rodot covecki

Prasina se kreva od cizmi vojnicki
Nema Rock'n'roll koga svirat kursumi

Se krenale od doma, reki begalci
Znaat da sila Boga nemoli

H                 D#m
Istorija vo zivo, snimaat kameri
A                    E
Daj po edno pivo, za nervi istenceni


riff1
       C#      E  H
Ova e Balkan, Majstore
       C#      E  H
Vo ista kal se valkame
       C#      E H
Od ista kasa srkame
       C#                 D D# E
Od pamtivek bilo,begaj da begame

Civ si ti bre sinki i sto k'smet imase
Da se rodis ovde kaj sto treva ne nikne
Soveti se delat ovde bez prasanje
A nikoj za nikogo kajle ne bere

Pred sto godini se rodila baba mi
I glava ne krenala od vojni balkansi
Begaj, seli se, placi veseli se
Od ono sto je pisano nema beganje

riff1

Ova e Balkan, Majstore
Vo ista kal se valkame
Od ista kasa srkame
             G             C#
Od pamtivek bilo,begaj da begame
G          C#    G          C#
begaj da begame, begaj da begame, ama kade?

riff1

solo (necu ni da pokusavam)

Ova e Balkan, Majstore
Vo ista kal se valkame
Od ista kasa srkame
Od pamtivek bilo,begaj da begame


------------------------------
Enjoy the Macedonian Music
Tap to rate this tab
 
# A B C D E F G H I J K L M N O P Q R S T U V W X Y Z