Leb I Sol - Ajde Dali Znaes tab

Verse 1:
-6-7-9s11-9-7-11-9-7-6-----9s11-9-7-6---6h7p6--------|
-7---------------------9-9-----------9-------9-8-----|
-8----------------------------------------------9-8--|
-----------------------------------------------------|
-----------------------------------------------------|
-----------------------------------------------------|

                          ->
----------------6h7p6--------------------------------|
------------8-9------9-8------------9-8--------------|
8---8-9-8-9--------------9-8--8-6-8-----9-8-8--------|
--11-------------------------------------------------|
-----------------------------------------------------|
-----------------------------------------------------|

Verse 2:
---------6-----6-7-9-----9--7h9-9-9-7-6-7-6----------|
-----8-9------7---------9-------------------9-8-9----|
----8--------8---------9-----------------------------|
---8--------8--------11------------------------------|
--6--------------------------------------------------|
-----------------------------------------------------|


-9-9-9-9-9-7-7-6---6h7-6h7p6-------------------------|
-9---------------9-----------9-8--------9-8----------|
-9------------------------------9------8----9-8-8----|
-----------------------------------------------------|
-----------------------------------------------------|
-----------------------------------------------------|
Tap to rate this tab
 
# A B C D E F G H I J K L M N O P Q R S T U V W X Y Z