Leb I Sol - Makedonsko Oro tab

Vlatko Stefanovski - Makedonsko Oro

tabbed by TheArrow28

E|--------------------------------------------|
B|-----8--8--8--6--5-----------5--------------|
G|--5-----------------6--5--6-----6--6--5-----|
D|--------------------------------------------|
A|--------------------------------------------|
E|--------------------------------------------|



E|-----------------------------------------|
B|-----8--8--8--6--5-----------5-----------|
G|--5-----------------6--5--6-----6--6--5--|
D|-----------------------------------------|
A|-----------------------------------------|
E|-----------------------------------------|



E|-----------------------------------------------------------------------------|
B|-----8--8--8--6--5--------------------5--6--8--6--8--6--5--------------------|
G|--5-----------------6--5--6-----5--6-----------------------6--5--5--6-----5--|
D|-----------------------------8-----------------------------------------8-----|
A|-----------------------------------------------------------------------------|
E|-----------------------------------------------------------------------------|



E|-----------------------------------------------------------------------------------|
B|--------------------------------------5--6--8--6--8--6--5--------------------------|
G|-----------------------5--6-----5--6-----------------------6--5--5--6-----5--6--8--|
D|--8--8--8--8--8--8--8--------8-----------------------------------------8-----------|
A|-----------------------------------------------------------------------------------|
E|-----------------------------------------------------------------------------------|



E|-----------------------------------------------------------------------------|
B|--------------------------------------5--6--8--6--8--6--5--------------------|
G|-----------------------5--6-----5--6-----------------------6--5--5--6-----5--|
D|--8--8--8--8--8--8--8--------8-----------------------------------------8-----|
A|-----------------------------------------------------------------------------|
E|-----------------------------------------------------------------------------|


My e-mail to keep in touch: thearrow28@yahoo.com
Tap to rate this tab
 
# A B C D E F G H I J K L M N O P Q R S T U V W X Y Z