Song name
# A B C D E F G H I J K L M N O P Q R S T U V W X Y Z

Leb I Sol - Mamurni Ljudi chords

Highlighted       Show chord diagrams
Leb I Sol - Mamurni Ljudi

   Hm
Ja ustajem kasno i sve mi je jasno
Da je napolju zima i hladno je svima
   E                 G         F#
Prespavati jutro, prespavati vek
Kako li je tek

Ja ne pratim stampu jer unapred znam
Na dobre mi vesti ne mirise dan
Prespavati jutro, prespavati vek
Kako li je tek

  D A     Hm E
  Mamurni ljudi
  D  A      Hm E
  Ko vas to budi
  F        D      G     C
  Pravo na jastuk imamo svi
  D A     Hm E
  Mamurni ljudi...

Koliko je sati ja necu da znam
Jer nije mi zivot uvek radostan
Prespavati jutro, prespavati vek
Kako li je tek

  Ref ...

  solo: C#m x4, Hm E G F# Hm

  Ref ... 

Uvod/Kraj (Bass):                                       
G|| ----------------------|---------------6-- ||x4              
D||.-------9--7-----------|-----------4-7----.||                
A||.---8-9------9-8-7-5---|-------2-5--------.||                
E|| -7------------------7-|-5-2-5------------ ||                

Strofa (Bass): 
G|| ---------|---------- ||x2 ---------|
D||.-----2-4-|-2--------.||   ---------|
A||.-2-5-----|--2-5-----.||   -2---5-4-|
E|| ---------|------2-5- ||   -0---3-2-|

Solo (Bass):    
G|| ---------|---------- ||x4 || ---------|---------- ||x2 |---------|---------|----------|
D||.-----4-6-|-4--------.||   ||.-----2-4-|-2--------.||   |---------|-----2-4-|-2--------|
A||.-4-7-----|--4-7-----.||   ||.-2-5-----|--2-5-----.||   |-2---3-4-|-2-5-----|--2-5-----|
E|| ---------|------4-7- ||   || ---------|------2-5- ||   |-0---3-2-|---------|------2-5-|
Tap to rate this tab
# A B C D E F G H I J K L M N O P Q R S T U V W X Y Z