Song name
# A B C D E F G H I J K L M N O P Q R S T U V W X Y Z

Leb I Sol - Bistra Voda tab

Song - Bistra Voda
Band - Leb i Sol
Year - 1987

Transcription - Radko Kuzmanov

First line:

E||----------------|----------------------------|
B||----------------|------6h8h6--5h6h5----------|
G||--7-7b6h7--9s12-|----7--------------7--5-5~3-|
D||----------------|---7------------------5-5~3-| x2
A||----------------|----------------------------|
E||----------------|----------------------------|

Main theme:

               Dm                 Dm                  Dm                    C
E||---|-----1----0-1-----------------1---0-1----------1---0-1-----------1---3---5--|
B||---|-------3------3-------------3---3-----3------3---3-----3-------3---3---5---6|
G||---|---2---------------2--2h3-0-------------0--2-------------2h3-0--------------|
D||-0-|-0--------------------------------------------------------------------------|
A||---|----------------------------------------------------------------------------|
E||---|----------------------------------------------------------------------------|

BASS -Part
E||------------------|
B||------------------|
G||------------------|
D||------------------| x2
A||------------4h5---|
E||----3--5--6-------|

E||-------------------------------------|------------------------------|
B||-------------------------------------|------------------------------|
G||-------------------------------------|------------------------------|
D||-----------3--5h7-5---------3-5h7s-5-|-5~-3h2h3---------------------|
A||-----5-4-5------------5-4-5----------|----------5h4h5---4h5h4-------|
E||---5----------------5----------------|------------------------6-5-3-|

E||------------------|
B||------------------|
G||------------------|
D||------------------| x2
A||------------4h5---|
E||----3--5--6-------|

Main theme:

               Dm                 Dm                  Dm                    C
E||---|-----1----0-1-----------------1---0-1----------1---0-1-----------1---3---5--|
B||---|-------3------3-------------3---3-----3------3---3-----3-------3---3---5---6|
G||---|---2---------------2--2h3-0-------------0--2-------------2h3-0--------------|
D||-0-|-0--------------------------------------------------------------------------|
A||---|----------------------------------------------------------------------------|
E||---|----------------------------------------------------------------------------|
E||---|----------------------------------------------------------------------------|
Tap to rate this tab
# A B C D E F G H I J K L M N O P Q R S T U V W X Y Z