Song name
# A B C D E F G H I J K L M N O P Q R S T U V W X Y Z

Leb I Sol - Raspukala Sar Planina tab

Raspukala Sar Planina
Leb i Sol - Live in Macedonia

Main Riff:
e|-------------------------------------|
B|o-----------------------------------o|
G|-------------------------------------|
D|----------9--6-----------------------|
A|o--------------5---4--2--4--2-------o|
E|--4--4\------------------------4--2--|

Chorus: (is actually sung in the Serbian folk song)
e|---------------------------------------------------------------|
B|---------------------------------------------------------------|
G|---------------------------------------------------------------|
D|--------------------------------/11---11-11-11--13p11----------|
A|--/14--14-14-14---16p14--13~~-------------------------14---13--|
E|---------------------------------------------------------------|

e|---------------------------------------------------------------|
B|---------------------------------------------------------------|
G|---------------------------------------------------------------|
D|-------------------/11--11--13p11--------------11--------------|
A|--11------11--13\------------------14---13h14-----13--11-11~~--|
E|------14-------------------------------------------------------|

e|---------------------------------------------------------------|
B|---------------------------------------------------------------|
G|---------------------------------------------------------------|
D|-----------11--11---13p11-------------11-----------------------|
A|--/13--13-----------------14---13h14------13---11---11~~~~~\\--|
E|---------------------------------------------------------------|

   That's it. It's pretty much just a pentatonic blues scale in the key of G#. To listen 
the music, go to YouTube and watch the video. And yes, I spelled the song title right. 
there's a solo but Vlatko Stefanovski plays way too fast for me to tab it all out.

www.lebisol.com.mk/
Tap to rate this tab
 
# A B C D E F G H I J K L M N O P Q R S T U V W X Y Z