Song name
# A B C D E F G H I J K L M N O P Q R S T U V W X Y Z

Leb I Sol - Aber Dojde Donke tab

Leb i Sol - Aber Dojde Donke

E -----------------------------------------------------|
B -----------------------------------------------------|
G ----4/5--5~--4h5-7-4-4h5p4---4h5p4---4--------4------|
D ---x-----------------------7-------7---7~---7---7~-5-|
A -----------------------------------------------------|
E -----------------------------------------------------|


E -----------------------------------------------------|
B -----------------------------------------------------|
G ------------------4---4-5-4h5p4----------------------|
D ----pbr7--5/7---7---7-----------7~---7/--------------|
A ---x--------------------------------x----------------|
E -----------------------------------------------------|


E -----------------------------------------------------|
B ----7/8-8~-7h8-10-7-7h8p7---7h8p7---7----------------|
G ---x----------------------9-------9---9-8/9-9~-------|
D -----------------------------------------------------|
A -----------------------------------------------------|
E -----------------------------------------------------|


E -----------------------------------------------------|
B ----7/8-8~-7h8-10-7-7h8p7---7h8p7---7----------------|
G ---x----------------------9-------9---9-8/9-9~-------|
D -----------------------------------------------------|
A -----------------------------------------------------|
E -----------------------------------------------------|


E -----------------------------------------------------|
B ----7/8-8~-7h8-10-7-7h8p7---7h8p7---7-------7--------|
G ---x----------------------9-------9---9---9---9~-----|
D -----------------------------------------------------|
A -----------------------------------------------------|
E -----------------------------------------------------|


E --------------------------------------------------------|
B --------------------------------------------------------|
G ----pb9r-7---pb9r-7---7/9--------6-7p6-----9b--8-9------|
D ---x--------x--------x------7-9b-------9-7---------9b-7-|
A --------------------------------------------------------|
E --------------------------------------------------------|


E -----------------------------------------------------|
B -----------------------------------------------------|
G ----4/5---4h5-7-4-4h5p4---4h5p4---4------------------|
D ---x--------------------7-------7---7--7/8-8~--------|
A -----------------------------------------------------|
E -----------------------------------------------------|


E -----------------------------------------------------|
B -----------------------------------------------------|
G ----4/5---4h5-7-4-4h5p4---4h5p4---4------------------|
D ---x--------------------7-------7---7--7/8-8~--------|
A -----------------------------------------------------|
E -----------------------------------------------------|

E -----------------------------------------------------|
B -----------------------------------------------------|
G ----4/5---4h5-7-4-4h5p4---4h5p4---4--------4---------|
D ---x--------------------7-------7---7~---7---7~------|
A -----------------------------------------------------|
E -----------------------------------------------------|


E ------------------------------------------------------------------|
B ---------------------------------------------5b---5---------------|
G -----------------------------------4-5p4--------7---4b-4b-4b-4b---|
D ----pb7r-5----pb7r-5---5/7----5h7b-------7-5--------------------7-|
A ---x---------x--------x-------------------------------------------|
E ------------------------------------------------------------------|


E ----7-8-10-8------7-8-10-8------7-8-10-8------7/8-9-11-9------|
B ---x---------10-8----------10-8----------10-8-----------------|
G --------------------------------------------------------------|
D --------------------------------------------------------------|
A --------------------------------------------------------------|
E --------------------------------------------------------------|


E ----------7-8-10-8-----7-8-10-8---------|
B-----12-11---------10-8----------10-8----|
G ----------------------------------------|
D ----------------------------------------|
A ----------------------------------------|
E ----------------------------------------|

E ----7-8-10-8------7-8-10-8------7-8-10-8------7/8-9-11-9-----|
B -------------10-8----------10-8----------10-8----------------|
G -------------------------------------------------------------|
D -------------------------------------------------------------|
A -------------------------------------------------------------|
E -------------------------------------------------------------|


E ----------7-8-10-8-----7-8-10-8-----------|
B ----12-11----------9-8----------8/9-9-9---|
G ------------------------------------------|
D ------------------------------------------|
A ------------------------------------------|
E ------------------------------------------|

__________________________________________________________
__________________________________________________________

E -----------------------------------------------------|
B ----7/8--7h8-10-7-7h8p7---7h8p7---7------------------|
G ---x--------------------9-------9---9--8/9~----------|
D -----------------------------------------------------|
A -----------------------------------------------------|
E -----------------------------------------------------|


E ------------------------------------------------------------------|
B ----7/8--7h8-10-10b-10-8-7---10b-10-8-7----7-8-10b-8-7h8p7---7----|
G ---x-----------------------9------------9------------------9---9~-|
D ------------------------------------------------------------------|
A ------------------------------------------------------------------|
E ------------------------------------------------------------------|


E -----------------------------------------------------7b---7-----------------|
B ---7-------------------------------------6-7p6---------9----6b-6b-6b-6b--2--|
G -9---9b-9b-9b--pb9r-7-pb9r-7--7/9---7-9b--------9-7----------------------2--|
D ----------------------------------------------------------------------------|
A ----------------------------------------------------------------------------|
E ----------------------------------------------------------------------------|
Tap to rate this tab
 
# A B C D E F G H I J K L M N O P Q R S T U V W X Y Z