Song name
# A B C D E F G H I J K L M N O P Q R S T U V W X Y Z

Leb I Sol - Cukni Vo Drvo tab

Band:Leb i sol
Song:Cukni vo drvo
Made by:Galjo
E-mail:galjo15@gmail.com
MSN:galjoto@hotmail.com

Start 2 mandolines (adapted for guitar)
 
  E/G#          A/C#           E/G#       A/C#         E/G#     A/C#        E/G#           
E-16-16-16-16-16---17-17-16-16-19-19-19-19--17-17-16-16-19-19-19-19--17-17-16-16-12-12|
B-------------------------------------------------------------------------------------|
G-------------------------------------------------------------------------------------|
D-------------------------------------------------------------------------------------|
A-------------------------------------------------------------------------------------|
E-------------------------------------------------------------------------------------|

E-------------------------------------------------------------------------------------|
B-------------------------------------------------------------------------------------|
G-------------------------------------------------------------------------------------|
D-6-6-6-6-6-6-6-7-7--7-7-7-6-6--9--9--9--9-7--7--7-6-6--9--9--9-7-7-7-7-6-6-2-2-2-2-2-|
A-------------------------------------------------------------------------------------|
E-------------------------------------------------------------------------------------|

               H     A           E            
 "Na Boga kamenja         ne sme frlale"
               H     A           E
 "Od drugi  poveke        ne sme gresele"
E------------------------------------------------|
B------------------------------------------------|
G----------6--8----(8/6)--8---8---6--4~---4------|
D--7--6--9---------------------------------7-6~--|
A--0--0------------------------------------------|
E------------------------------------------------|

        A                F#m             A             E/G#  A/C#  E/G#  A/C#   E/G#
So edna nadez, za troska ljubov za malku srekaa ziveeme
          H          A         E     
 "Pesni stihovii          celi fermani,"
          H          A          E
 "Noki nespanii           solzi soleni,"
E------------------------------------------------|
B------------------------------------------------|
G----------6--8----(8/6)--8---8---6--4~---4------|
D--7--6--9---------------------------------7-6~--|
A--0--0------------------------------------------|
E------------------------------------------------|
        A                F#m             A             E  A  E  
So edna nadez, za troska ljubov za malku srekaa ziveeme

E-------------------|
B-----------2-4-5---|
G-----1-3-4---------|
D-2-4---------------|
A-------------------|
E-------------------|

 A          E
   Cukni vo drvo
 A          E 
   vistina  e
 A          E            H  
   nadvor e prolet zivi sme
 A          E
   Cukni vo drvo
 A          E  
   cukni 3  pati
 A          E           H
   zaedno da sme jas i  ti

  E/G  A/C#  E/G  A/C#   E/G

            H     A              E    
  Kako decinjaa     vo    krevet gusnati
            H     A                  E    
  ne stanuvamee     a     veke pladne e
E------------------------------------------------|
B------------------------------------------------|
G----------6--8----(8/6)--8---8---6--4~---4------|
D--7--6--9---------------------------------7-6~--|
A--0--0------------------------------------------|
E------------------------------------------------|

       A         F#m         A           E  A  E  
 Toa e ova,ova e toa,toa e toa,toa e se

E-------------------|
B-----------2-4-5---|
G-----1-3-4---------|
D-2-4---------------|
A-------------------|
E-------------------|

 A          E
   Cukni vo drvo
 A          E 
   vistina  e
 A          E           H  
   nadvor e prolet zivi sme 
 A          E
   Cukni vo drvo
 A          E  
   cukni 3 pati
 A          E           H
End
E-7-4~-----7-4~-----7-4~-----7-4--------|
B--------------------------------5------|
G---------------------------------------|
D---------------------------------------|
A---------------------------------------|
E---------------------------------------|
Tap to rate this tab
# A B C D E F G H I J K L M N O P Q R S T U V W X Y Z