Song name
# A B C D E F G H I J K L M N O P Q R S T U V W X Y Z

Leb I Sol - Kalajdzisko Oro tab

Made by:Galjo
Artist:Leb i Sol 
Song:Kalajdzisko Oro

The original is old Macedonian song and dance.

Any comments, questions on Galjo15@gmail.com

 Riff 1   (On the second time acoustic guitar come in)
E------------3h2---2--------------3h2---2--------------3h2---2---------------------|
B-2h3-3--3-3-----5------2h3-3--3-3----5-----2h3-3--3-3-----5------2h3-3---3--3-3---|
G-------2--------------------2--------------------2--------------------2-----------| 
D----------------------------------------------------------------------------------| 5x
A----------------------------------------------------------------------------------|
E----------------------------------------------------------------------------------|

 Riff 2
 (^1/2 up)
E-7h5h7h5h7^8h5-7h5------|                         E--------------------|
B------------------8h7---|                         B---2h3-3---3--3-3---|
G------------------------|                         G---------2----------|
D------------------------|    On the third time    D--------------------|
A------------------------|                         A--------------------| 
E------------------------|                         E--------------------|

 Riff 3
E--4h5-5-5----4--------|                                    E--------------------|
B-----------6---6--5-3-|                                    B---2h3-3---3--3-3---|
G----------------------| On the third time play this again  G---------2----------|   
D----------------------|                                    D--------------------|    
A----------------------|                                    A--------------------|
E----------------------|                                    E--------------------|
 
 Riff 4
E-4--4-4-4---4-4-4-4--4--4-5-5-5-5--5-------------------------------4h5h4--------|
B-5--5-5-5---5-5-5-5--5--5-5-5-5-5--5--5------5--5------5--5------5------7h5-----|
G-4--4-4-4---4-4-4-4--4--4-4-4-4-4--4--4-7h6h44--4-7h6h44--4-7h6h44--------------|
D--------------------------------------------------------------------------------|
A--------------------------------------------------------------------------------|
E--------------------------------------------------------------------------------|

Solo
E---------------------------------------------|
B---------------------------------------------|
G---(9)-12~--9~---------------------9h10h7h9~-|
D-12------------12\9~--7\6/9~-10-12-----------|
A---------------------------------------------|
E---------------------------------------------|

The next part of the solo is improvisation.But i'm gonna tab it soon.
Tap to rate this tab
 
# A B C D E F G H I J K L M N O P Q R S T U V W X Y Z