Song name
# A B C D E F G H I J K L M N O P Q R S T U V W X Y Z

Led Zeppelin - Celebration Day tab

----------------------------------------------------------------------------
             Celebration Day - Led Zeppelin - Led Zeppelin III
----------------------------------------------------------------------------
tabbed by orange juice

ok i think this is right.. but i don't hav the solo completely figured out yet.


INTRO:
|-6/7-7-7-7-7-7-7--6/7-7-7-7-7-7-7-|
|-5/6-6-6-6-6-6-6--5/6-6-6-6-6-6-6-|
|-6/7-7-7-7-7-7-7--6/7-7-7-7-7-7-7-|
|----------------------------------|
|----------------------------------|
|----------------------------------|

|-6/7-7-7--6/7-7-7--6/7-7-7/8-8-8-8/9-9-9-9-9-9-9-9-9~~~--|
|-5/6-6-6--5/6-6-6--5/6-6-6/7-7-7-7/8-8-8-8-8-8-8-8-8~~~--|
|-6/7-7-7--6/7-7-7--6/7-7-7/8-8-8-8/9-9-9-9-9-9-9-9-9~~~--|
|---------------------------------------------------------|
|---------------------------------------------------------|
|---------------------------------------------------------|

|-------------------------------------------------|
|-------------------------------------------------|
|-------------------------------------------------|
|-------------------------------------------------|
|-0--3p-0---3p-0-3p-0-3--0--3p-0---3p-0-3p-0-3----|
|-------------------------------------------------|

VERSE:

Lead:
|----------------9-9-9-9-9-9------------------------|
|----------------8-8-8-8-8-8------------------------|
|-----------2/---9-9-9-9-9-9------------------------|
|---------------------------------------------------|
|-0--3p-0----------------------0--3p-0--3p-0-3p-0-3-|
|---------------------------------------------------|

Rythem:
|-----------------------|
|-----------------------|
|-----------------------|
|--------7~-------------|
|-3/4---------3\4-------|
|-----5-----------5-5~--|

CHORUS:
|-----------------------------------------------------------------|
|-----------------------------------------------------------------|
|-5-5-5-5-5-5-5-5-5-5-5-5-5-5-5-5---------------------------------|
|-5-5-5-5-5-5-5-5-5-5-5-5-5-5-5-5-5-5-5-5-5-5-5-5-5-5-5-5-5-5-5-5-|
|-3-3-3-3-3-3-3-3-3-3-3-3-3-3-3-3-5-5-5-5-5-5-5-5-5-5-5-5-5-5-5-5-|
|---------------------------------3-3-3-3-3-3-3-3-3-3-3-3-3-3-3-3-|

|-----------------------------------------------------------------|
|-----------------------------------------------------------------|
|-3-3-3-3-3-3-3-3-3-3-3-3-3-3-3-3---------------------------------|
|-3-3-3-3-3-3-3-3-3-3-3-3-3-3-3-3-3-3-3-3-3-3-3-3-3-3-3-3-3-3-3-3-|
|-1-1-1-1-1-1-1-1-1-1-1-1-1-1-1-1-3-3-3-3-3-3-3-3-3-3-3-3-3-3-3-3-|
|---------------------------------1-1-1-1-1-1-1-1-1-1-1-1-1-1-1-1-|

|-----------------------------------------------------------------|
|-----------------------------------------------------------------|
|-5-5-5-5-5-5-5-5-5-5-5-5-5-5-5-5---------------------------------|
|-5-5-5-5-5-5-5-5-5-5-5-5-5-5-5-5-5-5-5-5-5-5-5-5-5-5-5-5-5-5-5-5-|
|-3-3-3-3-3-3-3-3-3-3-3-3-3-3-3-3-5-5-5-5-5-5-5-5-5-5-5-5-5-5-5-5-|
|---------------------------------3-3-3-3-3-3-3-3-3-3-3-3-3-3-3-3-|

|-----------------------------------9-9-9-9--8-8-8-8-|
|-----------------------------------8-8-8-8--7-7-7-7-|
|-3-3-3-3-3-3-3-3-3-3-3-3-3-3-3-3---9-9-9-9--8-8-8-8-|
|-3-3-3-3-3-3-3-3-3-3-3-3-3-3-3-3--------------------|
|-1-1-1-1-1-1-1-1-1-1-1-1-1-1-1-1--------------------|
|----------------------------------------------------|
Tap to rate this tab
# A B C D E F G H I J K L M N O P Q R S T U V W X Y Z