Song name
# A B C D E F G H I J K L M N O P Q R S T U V W X Y Z

Led Zeppelin - Dancing Days tab

-------------------------------------------------------------------------------
			     Dancing Days- Led Zeppelin
-------------------------------------------------------------------------------
                                Led Zeppelin
                                Dancing Days
Tabbed by: doompers7491
Email: doompers7491@yahoo.com

|Tuning:DBGDGE

/  slide up
\  slide down
h  hammer-on
p  pull-off
~  vibrato
x  Mute note

Intro
D|-0-0-0--------------0-0-0--------------0-0-0-------------|
B|-2-3-2h3p2p0--------2-3-2h3p2p0--------2-3-2h3p2p0-------|
G|-0-0-0--------------0-0-0--------------0-0-0--------7/5--|
D|-0-0-0-------0-3-0--0-0-0-------0-3-0--0-0-0--------mute-|
G|-0-0-0-------0-3-0--0-0-0-------0-3-0--0-0-0--------7/5--|
E|-0-0-0--------------0-0-0--------------0-0-0-------------|

Verse:
D|-----------------------------------------------------|
B|-------0--3--5-------5h6--6p5-------/9--7--9---9--7--|
G|-------0--3--5-------5------5-----------/6------6--6-|
D|-------0--3--5-------5------5-----------/6------6--6-|
G|-----------------------------------------------------|
E|-----------------------------------------------------|

D|------------------------------------------|
B|-----/6--5-h6--6h8---5-h6---5-------------|
G|-----/5----------5------5---5-------------|
D|-----/5----------5------5---5---5-7-5-7-5-|
G|------------------------------------------|
E|------------------------------------------|

D|------------------------------------------|
B|6------5h6----6h5----------/9h7----9--9h7-|
G|5 -----5------5------------/6------6--6---|
D|5 -----5------5------------/6------6--6---|
G|------------------------------------------|
E|------------------------------------------|

D|----------------------------------------|
B|-----/6-5h6--6h8---5h6--5---------------|
G|-----/5------5-----5----5---------------|
D|-----/5------5-----5----5----5-7-5-7-5--|
G|----------------------------------------|
E|----------------------------------------|

D|--------------------------------------|
B|6h5------6---6h5----/5p3--6--3---5--3-|
G|5--------5---5------/3----3--3---3--3-|
D|5--------5---5------/3----3--3---3--3-|
G|--------------------------------------|
E|--------------------------------------|

D|-----------------------------------------|
G|-------3p2---3--2--3h5--2h3--2-----------|
B|-------2-----2--2--2----2----2-----------|
D|-------2-----2--2--2----2----2---2-3-2-3-|
G|-----------------------------------------|
E|-----------------------------------------|

D|-----------------------------------------|
G|---6p5-----6---6p5----/5p3---6--3---5--3-|
B|---5-------5---5------/3-----3--3---3--3-|
D|---5-------5---5------/3-----3--3---3--3-|
G|-----------------------------------------|
E|-----------------------------------------|

D|---------------------------------------------------|
G|-------3p2---3p2-3h5---2h3---2---------------------|
B|-------2-----2---2-----2-----2----2----------------|
D|-------2-----2---2-----2-----2----2---2-3-2-2-3-2--|
G|---------------------------------------------------|
E|---------------------------------------------------|

Solo over verse
D|------------------------8------8---/9---9/11---\8--|
G|------------------5--8--8------8---/9---9/11---\8--|
B|---------------5-----------------------------------|
D|------------5--------------------------------------|
G|------3-/7-----------------------------------------|
E|---------------------------------------------------|

D|------------------------8-----------------------------------|
G|------------------5--8--8-----------------------------------|
B|---------------5-------------------17\15--------15/17---14--|
D|------------5----------------------17\15--------15/17---14--|
G|------3-/7--------------------------------------------------|
E|------------------------------------------------------------|

D|------------------------8------------------------------------|
G|------------------5--8--8------------------------------------|
B|---------------5-------------------17\15--------15/17---14---|
D|------------5----------------------17\15--------15/17---14---|
G|------3-/7---------------------------------------------------|
E|-------------------------------------------------------------|

Solo
D|--------------------------------------------------------------|
G|--------------------------------------------------------------|
B|------0--3--/5------3--0--3--/5--6-----------6-8--8b10---8-8--|
D|------0--3--/5------3--0--3--/5--6----------------------------|
G|--------------------------------------------------------------|
E|--------------------------------------------------------------|

D|---------------------------------------------------------------|
G|---------------------------------------------------------------|
B|-------8b10----8b10---8-8--------8b10----8b10--8-8-6-6-8-6-5---|
D|---------------------------------------------------------------|
G|---------------------------------------------------------------|
E|---------------------------------------------------------------|

Great song. There was no other good tabs for this song.
Tap to rate this tab
# A B C D E F G H I J K L M N O P Q R S T U V W X Y Z