Song name
# A B C D E F G H I J K L M N O P Q R S T U V W X Y Z

Led Zeppelin - Four Sticks tab

Song: Four Sticks
Artist: Led Zeppelin
Album LED ZEPPELIN IV (1972)
Tabbed By: INDIE NATION

Words and Music by Jimmy Page & Robert Plant

Gtr I, II, II (E A D G B E) - 'Jimmy Page - Rhythm w/overdrive'
Gtr IV (E A D G B E) - 'Jimmy Page - Steel String Acoustic'
Gtr V (E A D G B E) - 'Jimmy Page - 12 string electric'

Intro:

  E=208
 5/8
  Gtr I
  E E    E. S      +E   E E   E. S      +E   E E
|-----||--------------------|--------------------|
|-----||--------------------|--------------------|
|-----||----0------(0)------|----0------(0)------|
|-----||----5b5.5==(5)r-----|----5b5.5==(5)r-----|
|-4-5-||-7--------------4-5-|-7--------------4-5-|
|-0-0-||-0--------------0-0-|-0--------------0-0-|
|
| Gtr II
| E E    E. S      +E   E E   E. S      +E   E E
|-----||--------------------|--------------------|
|-----||--------------------|--------------------|
|-----||--------------------|--------------------|
|-----||----5------(5)------|----5------(5)------|
|-7-7-||-7--------------4-5-|-7--------------4-5-|
|-0-0-||-0--------------0-0-|-0--------------0-0-|
       |-Rhy Fig 1

  E. S      +E   E E   E. S      +E   E E
|--------------------|--------------------|
|--------------------|--------------------|
|----0------(0)------|----0------(0)------|
|----5b5.5==(5)r-----|----5b5.5==(5)r-----|
|-7--------------4-5-|-7--------------4-5-|
|-0--------------0-0-|-0--------------0-0-|
|
| E. S      +E   E E   E. S      +E   E E
|--------------------|--------------------|
|--------------------|--------------------|
|--------------------|--------------------|
|----5------(5)------|----5------(5)------|
|-7--------------4-5-|-7--------------4-5-|
|-0--------------0-0-|-0--------------0-0-|
                            end Rhy Fig 1-|

 6/8                             5/8
                                                                      Gtrs I, III
  S  S +Q   +Q.     Q   E E E E   E. S      +E   E E   E. S      +E   E E
|-----------------|-------------|--------------------|---------------------|
|-----------------|-------------|--------------------|---------------------|
|-----------------|-------------|----0------(0)------|----0------(0)-------|
|-7--7-(7)--(7)---|-5\----------|----5b5.5==(5)r-----|----5b5.5==(5)r------|
|-7--7-(7)--(7)---|-5\------4-5-|-7--------------4-5-|-7--------------4-5--|
|-5--5-(5)--(5)---|-3\------0-0-|-0--------------0-0-|-0--------------0-0--|
|
| H.                Q   E E E E   E. S      +E   E E   E. S      +E   E E
|-----------------|-------------|--------------------|---------------------|
|-----------------|-------------|--------------------|---------------------|
|-0---------------|-------------|--------------------|---------------------|
|-----------------|-------------|----5------(5)------|----5------(5)-------|
|-7---------------|-5\------7-7-|-7--------------4-5-|-7--------------4-5--|
|-0---------------|-3\------0-0-|-0--------------0-0-|-0--------------0-0--|


 6/8                            5/8
                           Gtr I
  S S +Q   +Q.     Q   E E E E   E. S      +E   E E   E. S      +E   E E
|----------------|-------------|--------------------|---------------------||
|----------------|-------------|--------------------|---------------------||
|----------------|-------------|----0------(0)------|----0------(0)-------||
|-7-7-(7)--(7)---|-5\----------|----5b5.5==(5)r-----|----5b5.5==(5)r------||
|-7-7-(7)--(7)---|-5\------4-5-|-7--------------4-5-|-7--------------4-5--||
|-5-5-(5)--(5)---|-3\------0-0-|-0--------------0-0-|-0--------------0-0--||
|
| S S +Q   +Q.     Q   E E E E   E. S      +E   E E   E. S      +E   E E
|----------------|-------------|--------------------|---------------------||
|----------------|-------------|--------------------|---------------------||
|----------------|-------------|--------------------|---------------------||
|-7-7-(7)--(7)---|-5\----------|----5------(5)------|----5------(5)-------||
|-7-7-(7)--(7)---|-5\------7-7-|-7--------------4-5-|-7--------------4-5--||
|-5-5-(5)--(5)---|-3\------0-0-|-0--------------0-0-|-0--------------0-0--||
|-Rhy Fig 2                                                 end Rhy Fig 2-|


Verses:

w/Rhy Fig 1 x2
   5/8
    E. S      +E   E E   E. S      +E   E E
||---------------------|--------------------|
||o--------------------|--------------------|
||-----0------(0)------|----0------(0)------|
||-----5b5.5==(5)r-----|----5b5.5==(5)r-----|
||o-7--------------4-5-|-7--------------4-5-|
||--0--------------0-0-|-0--------------0-0-|


  E. S      +E   E E   E. S      +E   E E
|--------------------|--------------------|
|--------------------|--------------------|
|----0------(0)------|----0------(0)------|
|----5b5.5==(5)r-----|----5b5.5==(5)r-----|
|-7--------------4-5-|-7--------------4-5-|
|-0--------------0-0-|-0--------------0-0-|


  E. S      +E   E E   E. S      +E   E E
|--------------------|--------------------|
|--------------------|--------------------|
|----0------(0)------|----0------(0)------|
|----5b5.5==(5)r-----|----5b5.5==(5)r-----|
|-7--------------4-5-|-7--------------4-5-|
|-0--------------0-0-|-0--------------0-0-|


                                 Gtrs I, III
  E. S      +E   E E   E. S      +E   E E
|--------------------|---------------------|
|--------------------|---------------------|
|----0------(0)------|----0------(0)-------|
|----5b5.5==(5)r-----|----5b5.5==(5)r------|
|-7--------------4-5-|-7--------------4-5--|
|-0--------------0-0-|-0--------------0-0--|


 6/8                             5/8
w/Rhy Fig 2 x2
                            Gtr I                                Gtrs I, III
  H.                Q   E E E E   E. S      +E   E E   E. S      +E   E E
|-----------------|-------------|--------------------|---------------------|
|-----------------|-------------|--------------------|---------------------|
|-----------------|-------------|----0------(0)------|----0------(0)-------|
|----7-(7)--(7)---|-5\----------|----5b5.5==(5)r-----|----5b5.5==(5)r------|
|-7--7-(7)--(7)---|-5\------4-5-|-7--------------4-5-|-7--------------4-5--|
|-5---------------|-3\------0-0-|-0--------------0-0-|-0--------------0-0--|
  S  S +Q   +Q.


  1.,D.S.
                                                                  To Coda
 6/8                            5/8
                           Gtr I
  S S +Q   +Q.     Q   E E E E   E. S      +E   E E   E. S      +E   E E
|----------------|-------------|--------------------|----------------------||
|----------------|-------------|--------------------|---------------------o||
|----------------|-------------|----0------(0)------|----0------(0)--------||
|-7-7-(7)--(7)---|-5\----------|----5b5.5==(5)r-----|----5b5.5==(5)r-------||
|-7-7-(7)--(7)---|-5\------4-5-|-7--------------4-5-|-7--------------4-5--o||
|-5-5-(5)--(5)---|-3\------0-0-|-0--------------0-0-|-0--------------0-0---||


  2.
 6/8
  S S +Q   +Q.     Q   E Q.
|----------------|--------------||
|----------------|--------------||
|----------------|--------------||
|-7-7-(7)--(7)---|-5\-----------||
|-7-7-(7)--(7)---|-5\-----------||
|-5-5-(5)--(5)---|-3s==0--------||
|
| S S +Q   +Q.     Q   E E  E E
|----------------|--------------||
|----------------|--------------||
|----------------|--------------||
|-7-7-(7)--(7)---|-5\-----------||
|-7-7-(7)--(7)---|-5\-------7-7-||
|-5-5-(5)--(5)---|-3\-------0-0-||


Bridge:

 6/8
  Gtr IV
  E  S S E E  S S E    E  S S E  E  S S E
|-------------------|---------------------|
|-------------------|---------------------|
|-------------------|---------------------|
|-7--7-7-7-5--5-5-5-|--7--7-7-7-/9--9-9-9-|
|-0--0-0-0-0--0-0-0-|--0--0-0-0--0--0-0-0-|
|-5--5-5-5-3--3-3-3-|--5--5-5-5-/7--7-7-7-|
|
| Gtr V
| Q.       Q.         +Q.        Q.
|----------0--------|-(0)--------0--------|
|----------0--------|-(0)--------0--------|
|----------4--------|-(4)-----------------|
|----------5--------|-(5)-----------------|
|-------------------|---------------------|
|-------------------|---------------------|
|-Rhy Fig 3 (both Gtrs)

   S   S  +Q    +Q.      E   E  E  +Q   E
|---------------------|-------------------|
|---------------------|-------------------|
|---------------------|-------------------|
|--9s=11-(11)--(11)---|-11--11-11-(11)----|
|--0------------------|--0---0--0--(0)----|
|--7s==9--(9)---(9)---|--9---9--9--(9)----|
|
| +Q.            Q.     +Q.         Q.
|-(0)------------0----|-(0)---------0-----|
|-(0)------------0----|-(0)---------0-----|
|----------------4----|-(4)---------4-----|
|----------------5----|-(5)---------------|
|---------------------|-------------------|
|---------------------|-------------------|


   E  S S E E  S S E    E  S S E E  S S E    Q.   +Q   E    E. S E Q   E
|--------------------|--------------------|--------------|---------------|
|--------------------|--------------------|--------------|---------------|
|--------------------|--------------------|--------------|---------------|
|--7--7-7-7-9--9-9-9-|--5--5-5-5-4--4-4-4-|--2----(2)----|--2----2-------|
|--0--0-0-0-0--0-0-0-|--0--0-0-0-0--0-0-0-|--0----(0)----|--0--0-0-------|
|--5--5-5-5-7--7-7-7-|--3--3-3-3-2--2-2-2-|--0----(0)----|--0--0---0-----|
|
| +Q.       Q.         +Q.       Q.         +Q.    Q.      +Q.     Q.
|-(0)-------0--------|-(0)-------0--------|-(0)----0-----|-(0)-----0-----|
|-(0)-------0--------|-(0)-------0--------|-(0)----0-----|-(0)-----0-----|
|-(4)-------4--------|-(4)-------4--------|-(4)----2-----|-(2)-----2-----|
|-----------5--------|-(5)----------------|--------2-----|-(2)-----2-----|
|--------------------|--------------------|--------------|---------------|
|--------------------|--------------------|--------------|---------------|


   E  S S E E  S S E    E  S S E  E  S S E     H.           E   E  E  +Q   E
|--------------------|---------------------|-------------|-------------------|
|--------------------|---------------------|-------------|-------------------|
|--------------------|---------------------|-------------|-------------------|
|--7--7-7-7-5--5-5-5-|--7--7-7-7-/9--9-9-9-|-/11---------|-11--11-11-(11)----|
|--0--0-0-0-0--0-0-0-|--0--0-0-0--0--0-0-0-|---0---------|--0---0--0--(0)----|
|--5--5-5-5-3--3-3-3-|--5--5-5-5-/7--7-7-7-|--/9---------|--9---9--9--(9)----|
|
| +Q.       Q.         +Q.        Q.          +Q.   Q.     +Q.         Q.
|-(0)-------0--------|-(0)--------0--------|--(0)---0----|-(0)---------0-----|
|-(0)-------0--------|-(0)--------0--------|--(0)---0----|-(0)---------0-----|
|-(2)-------2--------|-(2)-----------------|--------2----|-(2)---------9-----|
|-(2)----------------|---------------------|-------------|-------------7-----|
|--------------------|---------------------|-------------|-------------------|
|--------------------|---------------------|-------------|-------------------|


  Gtr I
   E  S S E  E  S S E   E  S S E E  S S E    Q.   +Q   E    E  S E. +Q.
|---------------------|-------------------|--------------|------------------||
|---------------------|-------------------|--------------|------------------||
|---------------------|-------------------|--------------|------------------||
|--7--7-7-7-/9--9-9-9-|-5--5-5-5-4--4-4-4-|--2----(2)----|-------2--(2)-----||
|--0--0-0-0--0--0-0-0-|-0--0-0-0-0--0-0-0-|--0----(0)----|--0--0-0--(0)-4-5-||
|--5--5-5-5-/7--7-7-7-|-3--3-3-3-2--2-2-2-|--0----(0)----|--0--0--------0-0-||
|                                                           H           E E
|
|Gtr II
| +Q.        Q.         Q.       Q.         +Q.    Q.      +Q.       Q.
|-(0)-----------------|----------0--------|-(0)----------|-----------0------||
|-(0)-----------------|----------0--------|-(0)----0-----|-(0)-------0------||
|-(9)-----------------|----------4--------|-(4)----4-----|-(4)-------4------||
|-(7)--------7--------|-------------------|--------------|------------------||
|---------------------|-------------------|--------------|--------------7-7-||
|---------------------|-------------------|--------------|--------------0-0-||
                                                            H           E E |
                                                                                         
                                                 end Rhy Fig 3- |


Re - Intro:

w/Rhy Fig 1 x2
 5/8
  Gtr I
  E. S      +E   E E   E. S      +E   E E
|--------------------|--------------------|
|--------------------|--------------------|
|----0------(0)------|----0------(0)------|
|----5b5.5==(5)r-----|----5b5.5==(5)r-----|
|-7--------------4-5-|-7--------------4-5-|
|-0--------------0-0-|-0--------------0-0-|


  E. S      +E   E E   E. S      +E   E E
|--------------------|--------------------|
|--------------------|--------------------|
|----0------(0)------|----0------(0)------|
|----5b5.5==(5)r-----|----5b5.5==(5)r-----|
|-7--------------4-5-|-7--------------4-5-|
|-0--------------0-0-|-0--------------0-0-|
|


  E. S      +E   E E   E. S      +E   E E
|--------------------|--------------------|
|--------------------|--------------------|
|----0------(0)------|----0------(0)------|
|----5b5.5==(5)r-----|----5b5.5==(5)r-----|
|-7--------------4-5-|-7--------------4-5-|
|-0--------------0-0-|-0--------------0-0-|


                                 Gtrs I, III
  E. S      +E   E E   E. S      +E   E E
|--------------------|---------------------|
|--------------------|---------------------|
|----0------(0)------|----0------(0)-------|
|----5b5.5==(5)r-----|----5b5.5==(5)r------|
|-7--------------4-5-|-7--------------4-5--|
|-0--------------0-0-|-0--------------0-0--|


 6/8                             5/8
w/Rhy Fig 2 x2
                            Gtr I                                Gtrs I, III
  H.                Q   E E E E   E. S      +E   E E   E. S      +E   E E
|-----------------|-------------|--------------------|---------------------|
|-----------------|-------------|--------------------|---------------------|
|-----------------|-------------|----0------(0)------|----0------(0)-------|
|----7-(7)--(7)---|-5\----------|----5b5.5==(5)r-----|----5b5.5==(5)r------|
|-7--7-(7)--(7)---|-5\------4-5-|-7--------------4-5-|-7--------------4-5--|
|-5---------------|-3\------0-0-|-0--------------0-0-|-0--------------0-0--|
  S  S +Q   +Q.


 6/8                            5/8
                           Gtr I
  S S +Q   +Q.     Q   E E E E   E. S      +E   E E   E. S      +E   E E
|----------------|-------------|--------------------|---------------------||
|----------------|-------------|--------------------|---------------------||
|----------------|-------------|----0------(0)------|----0------(0)-------||
|-7-7-(7)--(7)---|-5\----------|----5b5.5==(5)r-----|----5b5.5==(5)r------||
|-7-7-(7)--(7)---|-5\------4-5-|-7--------------4-5-|-7--------------4-5--||
|-5-5-(5)--(5)---|-3\------0-0-|-0--------------0-0-|-0--------------0-0--||


Verse 3:

w/Rhy Fig 1 x1.5
  E. S      +E   E E   E. S      +E   E E
|--------------------|--------------------|
|--------------------|--------------------|
|----0------(0)------|----0------(0)------|
|----5b5.5==(5)r-----|----5b5.5==(5)r-----|
|-7--------------4-5-|-7--------------4-5-|
|-0--------------0-0-|-0--------------0-0-|


  E. S      +E   E E   E. S      +E   E E
|--------------------|--------------------|
|--------------------|--------------------|
|----0------(0)------|----0------(0)------|
|----5b5.5==(5)r-----|----5b5.5==(5)r-----|
|-7--------------4-5-|-7--------------4-5-|
|-0--------------0-0-|-0--------------0-0-|


                                           6/8
                                          |-w/Rhy Fig 2
Gtrs I, III                               Gtr I
  E. S      +E   E E   E. S      +E   E E   H.                Q   E E E E
|--------------------|--------------------|-----------------|-------------|
|--------------------|--------------------|-----------------|-------------|
|----0------(0)------|----0------(0)------|-----------------|-------------|
|----5b5.5==(5)r-----|----5b5.5==(5)r-----|----7-(7)--(7)---|-5\----------|
|-7--------------4-5-|-7--------------4-5-|-7--7-(7)--(7)---|-5\------4-5-|
|-0--------------0-0-|-0--------------0-0-|-5---------------|-3\------0-0-|
                                            S  S +Q   +Q.


 5/8                                       6/8
                                           Gtrs I, III
  E. S      +E   E E   E. S      +E   E E   S +S  +Q   +Q.     E. S E Q.
|--------------------|--------------------|------------------|----------------||
|--------------------|--------------------|------------------|----------------||
|----0------(0)------|----0------(0)------|------------------|----------------||
|----5b5.5==(5)r-----|----5b5.5==(5)r-----|-7-(7)-(7)--(7)---|-5\-------------||
|-7--------------4-5-|-7--------------4-5-|-7-(7)-(7)--(7)---|-5\-------------||
|-0--------------0-0-|-0--------------0-0-|-5-(5)-(5)--(5)---|-3\-0-----------||


Bridge:

   6/8
   Rhy Fig 3 x2


 Interlude
  E.   E.   +E  E E   E.   E.   +E  E  E    Q.        Q.     Q.        Q.
|-------------------|--------------------|------------0----|-----------0----|
|-------------------|--------------------|------------0----|-----------0----|
|-4----2----(2)-0-2-|-4----6----(6)-8--9-|-11--------11----|----------11----|
|-5----4----(4)-2-4-|-5----7----(7)-9-11-|-13--------13----|----------13----|
|-0----0----(0)-0-0-|-0----0----(0)-0--0-|--0--------------|-0--------------|
|-------------------|--------------------|-----------------|----------------|
|-Rhy Fig 4
|
| S  E S  E  E  E E   S  E S  E  E  E  E   +E  S S E  Q.     E  S S E  Q.
|---------------0---|--------------------|------------0----|-----------0----|
|---------------0---|--------------------|------------0----|-----------0----|
|-------------------|--------------------|------------9----|-----------9----|
|-5----7----------7-|-5----7--------9--7-|-(7)-7-7-7-------|-7--7-7-7-------|
|-0----0----------0-|-0----0--------0--0-|-(0)-0-0-0-------|-0--0-0-0-------|
|-------------------|--------------------|-----------------|----------------|


  E.   E.   +E  E E   E.   E.   +E  E E    Q.    Q.     Q.     Q.
|-------------------|-------------------|--------0----|--------0-----|
|-------------------|-------------------|--------0----|--------0-----|
|-4----2----(2)-0-2-|-4----6----(6)-4-6-|--9-----9----|--------9-----|
|-5----4----(4)-2-4-|-5----7----(7)-5-7-|-11----11----|-------11-----|
|-0----0----(0)-0-0-|-0----0----(0)-0-0-|--0----------|-0------------|
|-------------------|-------------------|-------------|--------------|
|                                                      end Rhy Fig 4-|
|
| S  E S  E  E  E E   S  E S  E  E  E E    Q.    Q.     E  Q   Q.
|-------------------|-------------------|--------0----|--------0-----|
|-------------------|-------------------|--------0----|--------0-----|
|-------------------|-------------------|-------------|--------------|
|-5----4--------2-4-|-5----7--------5-7-|-11----------|-7--7---------|
|-0----0----------0-|-0----0--------0-0-|--0----------|-0--0---------|
|-------------------|-------------------|-------------|--------------|


w/Rhy Fig 4
  S  E S  E  E  E E   S  E S  E  E  E  E    Q.    Q.     E   Q   Q.
|-------------------|--------------------|--------0----|---------0-----|
|-------------------|--------------------|--------0----|---------0-----|
|-------------------|--------------------|-------------|---------------|
|-5----7--------2-4-|-5----7--------9-11-|-13----------|----13---------|
|-0----0----------0-|-0----0--------0--0-|--0----------|-0-------------|
|-------------------|--------------------|-------------|---------------|


Gtr II
  S  E S  E  E  E E   S  E S  E  E  E  E    E. S E  Q.      E  E E  Q.        D.S. al Coda
|-------------------|--------------------|----------0----|----------0-------||
|-------------------|--------------------|----------0----|----------0-------||
|-------------------|--------------------|----------9----|------------------||
|-5----7--------2-4-|-5----7--------9-11-|---------11----|-11---------------||
|-0----0----------0-|-0----0--------0--0-|--0--0-0-------|--0--0-0-----4-5--||
|-------------------|--------------------|---------------|-------------0-0--||
                                                            H          E E


Outro:

 5/8
w/Rhy Fig 1 to end
  Gtr I
  E. S      +E   E E   E. S      +E   E E
|--------------------|--------------------|
|--------------------|--------------------|
|----0------(0)------|----0------(0)------|
|----5b5.5==(5)r-----|----5b5.5==(5)r-----|
|-7--------------4-5-|-7--------------4-5-|
|-0--------------0-0-|-0--------------0-0-|


    E. S      +E   E E   E. S      +E   E E   E. S      +E   E E
||---------------------|--------------------|--------------------|
||o--------------------|--------------------|--------------------|
||-----0------(0)------|----0------(0)------|----0------(0)------|
||-----5b5.5==(5)r-----|----5b5.5==(5)r-----|----5b5.5==(5)r-----|
||o-7--------------4-5-|-7--------------4-5-|-7--------------4-5-|
||--0--------------0-0-|-0--------------0-0-|-0--------------0-0-|


  E. S      +E   E E   E. S      +E   E E   E. S      +E   E E
|--------------------|--------------------|--------------------|
|--------------------|--------------------|--------------------|
|----0------(0)------|----0------(0)------|----0------(0)------|
|----5b5.5==(5)r-----|----5b5.5==(5)r-----|----5b5.5==(5)r-----|
|-7--------------4-5-|-7--------------4-5-|-7--------------4-5-|
|-0--------------0-0-|-0--------------0-0-|-0--------------0-0-|


  E. S      +E   E E   E. S      +E   E E
|--------------------|----------------------||
|--------------------|---------------------o||
|----0------(0)------|----0------(0)--------||
|----5b5.5==(5)r-----|----5b5.5==(5)r-------||
|-7--------------4-5-|-7--------------4-5--o||
|-0--------------0-0-|-0--------------0-0---||


  E. S      +E   S S E   E. S      +E   S S E
|----------------------|----------------------|
|----------------------|----------------------|
|----0------(0)--------|----------------------|
|----5b5.5==(5)r-------|----5b5.5==(5)r-------|
|----------------4-5h7-|----------------4-5h7-|
|-0--------------------|-0--------------------|


  E. S      +E   E E   E. S      +E   E E
|--------------------|--------------------|
|--------------------|--------------------|
|----4------(4)------|----4------(4)------|
|----5b5.5==(5)r-----|----5b5.5==(5)r-----|
|----------------4-5-|----------------4-5-|
|-0------------------|-0------------------|


  E. S      +E   E E   E. S      +E   S S E
|--------------------|----------------------|
|--------------------|----------------------|
|----4------(4)------|----4------(4)--------|
|----5b5.5==(5)r-----|----5b5.5==(5)r-------|
|----------------4-5-|----------------4-5h7-|
|-0------------------|-0--------------0-----|


  E. S      +E   E E   E. S      +E   E E
|--------------------|--------------------|
|--------------------|--------------------|
|--------------------|--------------------|
|----5b5.5==(5)r-----|----5b5.5==(5)r-----|
|-7--------------4-5-|-7--------------4-5-|
|-0--------------0-0-|-0--------------0-0-|


  E. S      +E   E E   E. S      +E   E E   E. S      +E   E E
|--------------------|--------------------|--------------------|
|--------------------|--------------------|----0------(0)------|
|--------------------|--------------------|--------------------|
|----5b5.5==(5)r-----|----5b5.5==(5)r-----|----5b5.5==(5)r-----|
|-7--------------4-5-|-7--------------4-5-|-7--------------4-5-|
|-0--------------0-0-|-0--------------0-0-|-0--------------0-0-|


  E. S      +E   E E   E. S      +E   E E   E. S      +E   E E
|--------------------|--------------------|--------------------*|
|--------------------|--------------------|--------------------*|
|--------------------|--------------------|--------------------*|
|----5b5.5==(5)r-----|----5b5.5==(5)r-----|----5b5.5==(5)r-----*|
|-7--------------4-5-|-7--------------4-5-|-7--------------4-5-*|
|-0--------------0-0-|-0--------------0-0-|-0--------------0-0-*|
Tap to rate this tab
# A B C D E F G H I J K L M N O P Q R S T U V W X Y Z