Guitaretab - guitar tabs
Song name
# A B C D E F G H I J K L M N O P Q R S T U V W X Y Z

Led Zeppelin - Good Times Bad Times tab

    -----------------------------------------------------------

    LED ZEPPELIN - GOOD TIMES BAD TIMES (Page/Jones/Bonham) From
                   LED ZEPPELIN album. Released on January 12th
                   1969
   
    -----------------------------------------------------------

    Tabbed by:PJVillanueva





    In the days of my youth
    I was told what it means to be a man
    Now Ive reached that age
    Ive tried to do all those things the best I can
    No matter how I try
    I find my way to do the same old jam

  * Good times, bad times
    You know I had my share
    When my woman left home
    With a brown eyed man
    Well, I still don't seem to care

    Sixteen I fell in love
    With a girl as sweet as could be
    Only took a couple of days
    Till she was rid of me
    She swore that she would be all mine
    And love me till the end
    When I whispered in her ear
    I lost another friend

  * Chorus

    I know what it means to be alone
    I sure do wish I was at home
    I dont care what the neighbors say
    Im gonna love you each and every day
    You can feel the beat within my heart
    Realize, sweet babe, we ain't ever gonna part




    x   x   x       x       x       x   x   x   x   x   x   x   x
    E5                       
  e|------- ------- ------- -------|------- ------- ------- -------|
  B|-------------------------------|-------------------------------|
  G|9---9--------------------------|9---9--------------------------|
  D|9---9--------------------------|9---9--------------------------|
  A|7---7--------------------------|7---7--------------------------|
  E|0---0--------------------------|0---0--------------------------|


    x   x   x x   x   x   x x   x   x   x   x x   x   x   x x   x

  e|------- ------- ------- -------|------- ------- ------- -------|
  B|-------------------------------|-------------------------------|
  G|9---9--------------------------|9---9--------------------------|
  D|9---9--------------------------|9---9--------------------------|
  A|7---7--------------------------|7---7--------------------------|
  E|0---0--------------------------|0---0--------------------------|


    x   x     X  xx x x   x xxxxxx

  e|------- ------- ------- -------|
  B|-------------------------------|
  G|9---9--------------------------|
  D|9---9--------------------------|
  A|7---7--------------------------|
  E|0---0--------------------------|
                            In  the

    00:12

  e|------- ------- ------- -------|------- ------- ------- -------|
  B|-------------------------------|-------------------------------|
  G|9---9-\------------------------|----7---7----------------------|
  D|9---9-\------------------------|--7---7--7---4--7--------------|
  A|7---7-\------------------------|5----------5------4-~---5---6--|
  E|0---0-\------------------------|-------------------------------|
    days    of  my  youth   I   was told    what  means  to be    man
                                              it              a



  e|------- ------- ------- -------|------- ------- ------- -------|
  B|-------------------------------|-------------------------------|
  G|9---9-\------------------------|----7---7----------------------|
  D|9---9-\------------------------|--7---7--7---4--7--------------|
  A|7---7-\------------------------|5----------5------4-~---5---6--|
  E|0---0-\------------------------|-------------------------------|




  e|------- ------- ------- -------|------- ------- ------- -------|
  B|-------------------------------|-------------------------------|
  G|9---9-\------------------------|----7---7----------------------|
  D|9---9-\------------------------|--7---7--7---4--7--------------|
  A|7---7-\------------------------|5----------5------4-~---5---6--|
  E|0---0-\------------------------|-------------------------------|
    Now Ive reached     Ive tried do       all  those    the  I   can.
                that            to                  things  best
                  age


  e|------- ------- ------- -------|------- ------- ------- -------|
  B|-------------------------------|-------------------------------|
  G|9---9-\------------------------|----7---7----------------------|
  D|9---9-\------------------------|--7---7--7---4--7--------------|
  A|7---7-\------------------------|5----------5------4-~---5---6--|
  E|0---0-\------------------------|-------------------------------|
                                                                No

    00:33
    matter how I try
    I find my way to do the same old jam.


    00:44
    A5
  e|------- ------- ------- -------|------- ------- ------- -------|
  B|-------------------------------|-------------------------------|
  G|-------------------------------|-------------------------------|
  D|7---7---7----------------------|7---7---7-----7---7---7-7-7----|
  A|7---7---7----------------------|7---7---7-----7---7---7-7-7----|
  E/5---5---5----------------------|5---5---5----------------------|
    A               G       D ....      
  e/5------ 5------/7------ 5------/5------ 5------/7------ 5---5--|
  B/5-------5------/6-------7------/5-------5------/6-------7---7--|
  G/6-------6------/7-------7------/6-------6------/7-------7---7--|
  D|-------------------------------|-------------------------------|
  A|-------------------------------|-------------------------------|
  E|-------------------------------|-------------------------------|
    Good  times     bad   times   you I     had my  share       when
                                    know                          my


    B5
  e|------- ------- ------- -------|------- ------- ------- -------|
  B|-------------------------------|-------------------------------|
  G|-------------------------------|-------------------------------|
  D/9---9---9---9---9-------9------|9---9---9---9---9---9---9---9-\|
  A/9---9---9---9---9-------9------|9---9---9---9---9---9---9---9-\|
  E/7---7---7---7---7-------7------/7---7---7---7--/7---7---7---7-\|
    B               A       E       B
  e/7------ 7-----/ 9------ 7------/7------ 7------/7---7-- 7---7--|
  B/7-------7-----/10-------9------/7-------7------/7---7---7---7--|
  G/8-------8-----/-9-------9------/8-------8------/8---8---8---8--|
  D|-------------------------------|-------------------------------|
  A|-------------------------------|-------------------------------|
  E|-------------------------------|-------------------------------|
    woman   home  a brown man   Well  don't seem  to 
        left    with  eyed        I still           care



  e|------- ------- ------- -------|
  B|-------------------------------|
  G|-------------------------------|
  D|9-\----------------------------|
  A|9-\----------------------------|
  E|7-\----------------------------|

  e|7------ ------- ------- -------|
  B|7------------------------------|
  G|8------------------------------|
  D|-------------------------------|
  A|-------------------------------|
  E|-------------------------------|



    00:56
    F#5
  e|------- ------- 2P0-2-- -------|------- ------- 2P0-2-- -------|
  B|----------------2P0-2----------|----------------2P0-2----------|
  G|------------------------4P2-4--|------------------------4P2-4-2|
  D|4---4-------------------4P2-4--|4---4-------------------4P2-4-2|
  A|4---4--------------------------|4---4--------------------------|
  E|2---2--------------------------|2---2--------------------------|
    Sixteen     I   fell  love  with    as  sweet be              but
                        in        a girl      as
                                                could


  e|------- ------- 2P0-2-- -------|------- ------- 2P0-2-- -------|
  B|----------------2P0-2----------|----------------2P0-2----------|
  G|------------------------4P2-4-2|------------------------4P2-4-2|
  D|4---4-------------------4P2-4-2|4---4-------------------4P2-4-2|
  A|4---4--------------------------|4---4--------------------------|
  E|2---2--------------------------|2---2--------------------------|
    Only    took  couple  days  till    was rid   me              She
                a       of          she       of



    01:06
    swore that she would be all mine
    And love me till the end
    When I whispered in her ear
    I lost another friend Oh



    01:16
    B5            Esus4     E       B5 ....
  e|------- ------- ------- -------|------- ------- ------- -------|
  B|-------------------------------|-------------------------------|
  G|4---4---4-----2-2-2---2-1-1---1|4---4---4-----2-2-2---2-1-1-1-1|
  D|4---4---4-----2-2-2---2-2-2---2|4---4---4-----2-2-2---2-2-2-2-2|
  A|2---2---2-----2-2-2---2-2-2---2|2---2---2-----2-2-2---2-2-2-2-2|
  E|--------------0-0-0---0-0-0---0|--------------0-0-0---0-0-0-0-0|
    Good  times     bad   times   you I     had my  share       when
                                    know                          my



    C#5           F#sus4  F#        Db5 ....
  e|------- ------- ------- -------|------- ------- ------- -------|
  B|-------------------------------|-------------------------------|
  G|6---6---6-----4-4-4---3-3-3-3--|6---6---6---6---6---6---6---6--|
  D|6---6---6-----4-4-4---4-4-4-4--|6---6---6---6---6---6---6---6--|
  A|4---4---4-----4-4-4---4-4-4-4--|4---4---4---4---4---4---4---4--|
  E|--------------2-2-2---2-2-2-2--|-------------------------------|
    woman   home  a brown man   Well  don't seem  to 
        left    with  eyed        I still           care


                            X

  e|------- ------- ------- -------|
  B|-------------------------------|
  G|6------------------------------|
  D|6------------------------------|
  A|4------------------------------|
  E|-------------------------------|


          SOLO
          01:29

        e|-------12--- ---12--12--- 12--------12 ------------|
        B|-----12------12--------12---------12---------------|
        G|14B16----14B16---------------14B16----B161412--1412|
        D|---------------------------------------------14----|
        A|---------------------------------------------------|
        E|---------------------------------------------------|



        e|------------ ------------ ------------ ------------|
        B|----------------------------15---------------------|
        G|------12-----12-14-12-14--16--B161412--14-12--0----|
        D|14-14----14--------------------------14------------|
        A|---------------------------------------------------|
        E|---------------------------------------------------|


[ Tab from: http://www.guitaretab.com/l/led-zeppelin/10212.html ]
        e|------17B19- -------R---- (15)-------- ------15----|
        B|--------------------------------1717------17----17-|
        G|---------------------------------------------------|
        D|---------------------------------------------------|
        A|---------------------------------------------------|
        E|---------------------------------------------------|



        e|15B17--15--- ------15---- ------------ ------------|
        B|-------------17-15----171517-~--17-~---------------|
        G|---------------------------------------------------|
        D|---------------------------------------------------|
        A|----------------------------------------------12---|
        E|---------------------------------------------------|



        e|------------ ------------ ------------ ------12--15|
        B|--------------------------------12--12-151215--15--|
        G|-------------------12--12-141214--14---------------|
        D|------12--12-141214--14----------------------------|
        A|141214--14-----------------------------------------|
        E|---------------------------------------------------|



        e|15B17-15B16~ ---------15- 17B19R18---- 19R18B19----|
        B|-------------17-15-17------------------------------|
        G|---------------------------------------------------|
        D|---------------------------------------------------|
        A|---------------------------------------------------|
        E|---------------------------------------------------|


            B P                          P    B      B
        e|191715-15-17 1716-17-16-- 17-1715-1719 --1516------|
        B|------17-------------------------------------------|
        G|---------------------------------------------------|
        D|---------------------------------------------------|
        A|---------------------------------------------------|
        E|---------------------------------------------------|



        e|------------ ------------ ------------ ------------|
        B|17----17-----17P15-17-17B20-~-------15-------------|
        G|---------------------------------------------------|
        D|---------------------------------------------------|
        A|---------------------------------------------------|
        E|---------------------------------------------------|


    CHORUS
    01:49

  e|------- ------- ------- -------|------- ------- ------- -------|
  B|-------------------------------|-------------------------------|
  G|-------------------------------|-------------------------------|
  D|7---7---7---7---7-------7---7P5|7---7---7---7---7---7---7---7--|
  A|7---7---7---7---7-------7---7P5|7---7---7---7---7---7---7---7--|
  E|5---5---5---5---5-------5---5--|5---5---5---5---5---5---5---5--|

  e/5---5-- 5------ 3-----2 2-2----|5---5-- 5------ 3------ 2-2----|
  B/5---5---5-------3-----3-3-3----|5---5---5-------3-------3-3----|
  G/6---6---6-------4-----2-2-2----|6---6---6-------4-------2-2----|
  D|-------------------------------|-------------------------------|
  A|-------------------------------|-------------------------------|
  E|-------------------------------|-------------------------------|
    Good  times     bad   times   you I     had my  share       when
                                    know                          my



  e|------- ------- ------- -------|------- ------- ------- -------|
  B|-------------------------------|-------------------------------|
  G|4---4---4---4-4-2-2---2-1-1----|-------------------------------|
  D|4---4---4---4-4-2-2---2-2-2----|9---9---9---9---9---9---9---9-\|
  A|2---2---2---2-2-2-2---2-2-2----|9---9---9---9---9---9---9---9-\|
  E|----------------0-0---0-0-0----|7---7---7---7---7---7---7---7-\|

  e/7---7-- 7------ 5-5---4 4-4----|7---7-- 7---7-- 7---7-- 7---7--|
  B/7---7---7-------5-5---5-5-5----|7---7---7---7---7---7---7---7--|
  G/8---8---8-------6-6---4-4-4----|8---8---8---8---8---8---8---8--|
  D|-------------------------------|-------------------------------|
  A|-------------------------------|-------------------------------|
  E|-------------------------------|-------------------------------|
    woman   home  a brown man   Well  don't seem  to 
        left    with  eyed        I still           care




  e|------- ------- ------- -------|
  B|-------------------------------|
  G|4------------------------------|
  D|4------------------------------|
  A|2------------------------------|
  E|-------------------------------|

  e|7------ ------- ------- -------|
  B|7------------------------------|
  G|8------------------------------|
  D|-------------------------------|
  A|-------------------------------|
  E|-------------------------------|



          02:02

        e|1210--10---- ------------ ------------ ------------|
        B|----12--1210-1210--10------------------------------|
        G|-----------------12--12-9-12-9---9-----------------|
        D|-------------------------------12-12-9-12-9--9-----|
        A|-------------------------------------------12--1210|
        E|---------------------------------------------------|




                 e|------- ------- ------- -------|
                 B|-------------------------------|
                 G|-------------------------------|
                 D|--------------4-7--------------|
                 A|1210--------5-----4-~---5---6--|
                 E|---1210-10---------------------|




  e|------- ------- ------- -------|------- ------- ------- -------|
  B|-------------------------------|-------------------------------|
  G|9---9-\------------------------|----7--------------------------|
  D|9---9-\------------------------|--7---7--7---4--7--------------|
  A|7---7-\------------------------|5-------5--5------4-~---5---6--|
  E|0---0--------------------------|-------------------------------|

  e|------- ------- ------- -------|------- -----15B17-1517 15171517
  B|-------------------------------|-------------------------------|
  G|-------------------------------|-------------------------------|
  D|-------------------------------|-------------------------------|
  A|-------------------------------|-------------------------------|
  E|-------------------------------|-------------------------------|
        I know what means to    alone
                  it        be


  e|------- ------- ------- -------|------- ------- ------- -------|
  B|-------------------------------|-------------------------------|
  G|9---9-\------------------------|----7--------------------------|
  D|9---9-\------------------------|--7---7--7---4--7--------------|
  A|7---7-\------------------------|5-------5--5------4-~---5---6--|
  E|0---0--------------------------|-------------------------------| ....

  e|151715-~------- ------- -------|---2022 -----20 19---20 19-\---|
  B|-------------12----------------|-----B-------------------------|
  G|-------------------------------|-------------------------------|
  D|-------------------------------|-------------------------------|
  A|-------------------------------|-------------------------------|
  E|-------------------------------|-------------------------------|
        I sure  do  wish    was at 
                      I           home


    02:17

  e|------- ------- ------- -------15------ -15----15----15----15--|
  B|1212---------------------------15-------B17R15B17R15B17R15R17R15
  G|-------------------------------|-------------------------------|
  D|-------------------------------|-------------------------------|
  A|-------------------------------|-------------------------------|
  E|-------------------------------|-------------------------------|
        I don't care  what  neighbours
                          the         say



  e|15----- ------- ------- -------|------- ------- ------- -------|
  BB17R15--------------------------|-------------------------------|
  G|-------------------------------|------------14-----------------|
  D|-------------------------------|----12-------------------------|
  A|-------------------------------|-------------------------------|
  E|-------------------------------|-------------------------------|
        I'm gonna love you        each  and every day




  e|------- ------- ------- -------|------- ------- ------- -------|
  B|----15----15----15---15B16-----|16R15--~-----------------------|
  D|14B15-14B15-14B15----15B16-----|-----------------------------14B
  A|-------------------------------|-------------------------------|
  E|-------------------------------|-------------------------------|
                                    you could   the    within my heart
                                            feel  beat            



        e|------------ ------------ ------------ ------------|
        B|---15----------------------------------------------|
        G|16-----14-12-14-12---------------------------------|
        D|------------------14-12---1412--12-----------------|
        A|------------------------------14--1412141210-101210|
        E|--------------------------------------------12-----|




                   e|------- ------- ------- -------|
                   B|-------------------------------|
                   G|-------------------------------|
                   D|---12--------------------------|
                   A|1214-12--~---------------------|
                   E|--B----------------------------|
                     Realise   sweet babe we ain't
                                                 never
                     ............. Fade ............


                                                B R P
  e|------- ------- ------- -------|------- --17191715-1715 17151715
  B|-------------------------------|-----------------17------------|
  G|-------------------------------|-------------------------------|
  D|-------------------------------|-------------------------------|
  A|-------------------------------|-------------------------------|
  E|-------------------------------|-------------------------------|
            gonna part
    ...............................................................


      H
  e|1516-\- ------- ------- -------|------- ------- ------- -------|
  B|-------------------------------|-------------------------------|
  G|-------------------------------|-------------------------------|
  D|-------------------------------|-------------------------------|
  A|-------------------------------|-------------------------------|
  E|-------------------------------|-------------------------------|
    .......






        B  Bend
        R  Release
        /  Slide up
        \  Slide down
        H  Hammer-on
        P  Pull-off
        ~  Vibrato
        +  Harmonic
        x  Mute note
        .  Play note like a dot in standard notation
        ^  Ties two notes together
        (. Pause


Related for Good Times Bad Times tab
Good Times Bad Times chords by Led Zeppelin