Song name
# A B C D E F G H I J K L M N O P Q R S T U V W X Y Z

Led Zeppelin - Immigrant Song tab

-------------------------------------------------------------------------
                      Led Zeppelin - Immigrant Song
-------------------------------------------------------------------------
Transcribed by Victor Ochoa

Standard Tuning

Main riff
E|----------------|----------------|
B|----------------|----------------|
G|----------------|----------------|
D|----4-------4---|----4-------4---|
A|----------------|----------------|
E|2-22-2-22-22-2-2|2-22-2-22-22-2-2|

Verses intro
E|0---------------|(0)-----0-------|
B|0---------------|(0)-----0-------|
G|1---------------|(1)-----1---6---|
D|2---------------|(2)-----2---7---|
A|2---------------|(2)-----2---7---|
E|0---------------|(0)-----0---5---|
  We come from the land of the ice and snow.....

Verses double with this (muted)
E|----4-------4---|
B|----5-------5---|
G|6-666--66-666--6|
D|4-44---44-44---4|
A|----------------|
E|----------------|
  Hammer of the gods.....
  How soft your fields so green.....

E|----------------|----------------|----------------|----------------|
B|2--222--2--222--|4-4444-44-4444-4|5---5-55-55-5-5-|555555555-------|
G|2--222--2--222--|4-4444-44-4444-4|5---5-55-55-5-5-|555555555-------|
D|2--222--2--222--|4-4444-44-4444-4|5---5-55-55-5-5-|555555555-------|
A|0--000--0--000--|2-2222-22-2222-2|3---3-33-33-3-3-|333333333-------|
E|----------------|----------------|----------------|----------------|
  On we sweep.....

  Outro
E|----------------|----------------|
B|----------------|------------3---|
G|----------------|------------3---|
D|----4-------4---|----4-------5---|
A|----------------|------------3---|
E|2-22-2--2-22-2--|2-22-2--2-22----|
Tap to rate this tab
# A B C D E F G H I J K L M N O P Q R S T U V W X Y Z