Song name
# A B C D E F G H I J K L M N O P Q R S T U V W X Y Z

Led Zeppelin - In The Light tab

----------------------------------------------------------------------------
			     In the Light-Led Zeppelin
----------------------------------------------------------------------------
Tabbed by: melsonwheels
Email: melson_wheels@yahoo.com

Tuning: standard

INTRO RIFF:
                        OR
e|-----------------------| ----------------------|
B|--10-9-8---------------| ----------------------|
G|---------9-8-7---------| ----------------------|
D|---------------8-7\----| --7-6-5---------------|
A|-----------------7\----| --------7-6-5---7\----|
E|-----------------------| --------------6-5\----|

MAIN RIFF:
Let the G string ring on the last beat
e|----------------------|   ---------|
B|----------------------|   ---------|
G|---------------7--0---|   ---------|
D|------------------5---|   -7-6-5---|
A|--0-0-12-101298-87----|   -------7-|
E|----------------------|   ---------|

RIFF 2:
e|-----------------------------|
B|--8^10----------------7910---|
G|----------------2-679--------|
D|------------2-46-------------|
A|--------0-45-----------------|
E|--------5--------------------|

GUITAR SOLO:
e|-16^17r14p12-16^17r14p12-16^17r14p12-16^17r14p12--------------------------|
B|-------------------------------------------------12/13\12---12^13^12------|
G|---------------------------------------------------------14---------14----|
D|--------------------------------------------------------------------------|
A|--------------------------------------------------------------------------|
E|--------------------------------------------------------------------------|

e|--------------------------------------------20-97--9^10-------20-97--9^10--|
B|-12^13^12--12^13^12^14--7-5------5----20-20---3--10-----20-20---3--10------|
G|---------14----------------7---57-------2--2--------------2--2-------------|
D|----------------------------7-----7----------------------------------------|
A|----------------------------------0----------------------------------------|
E|---------------------------------------------------------------------------|

e|--------20-97--9^10--12^141210-17-17-------1/20-20--02024245-7-9----------|
B|--20-20---3--10----------------------12h14-----3--3-----------------------|
G|----2--2------------------------------------------------------------------|
D|--------------------------------------------------------------------------|
A|--------------------------------------------------------------------------|
E|--------------------------------------------------------------------------|

e|------------12^14-12--9-971097109710--------------------------------------|
B|-12^13^12-----------10----------------------------------------------------|
G|---------14---------------------------------------------------------------|
D|--------------------------------------------------------------------------|
A|--------------------------------------------------------------------------|
E|--------------------------------------------------------------------------|


Listen to the exact placement of the guitar solo over riff 2

| /  slide up
| \  slide down
| h  hammer-on
| p  pull-off
| ~  vibrato
| +  harmonic
| x  Mute note
============================================================================
Tap to rate this tab
# A B C D E F G H I J K L M N O P Q R S T U V W X Y Z