Song name
# A B C D E F G H I J K L M N O P Q R S T U V W X Y Z

Led Zeppelin - No Quarter tab

Led Zeppelin
No Quarter
John Paul Jones, Jimmy Page & Robert Plant

tabbed by guiitar_addiict

this is the right way to play it.
(EADGBe)

(riff 1) intro/outro
|----------------------------------------------------------------------------------------------------------------------------|
|----------------------------------------------------------------------------------------------------------------------------|
|------------1---1---1-------------1---1---1--------------1------------------------------------------------------------------|
|-------------------------------------------------------------------------------------------------------------------------2--|
|---2---4----------------2---4--------------------2---4--------4---------------4---4---4---2-------------2-------------4-----|
|-------------------------------------------------------------------------0---2-----------------------2---4---------4--------|    
repeat that 4 times

            close the door,  put out the light   you know they won't be home tonight
|------------------------------------------------------------------------------------------|
|------------------------0---2---2---4---4--------------0---0---0---2----------------------|
|------------1---2------------------------------------------------------------------1---1--|
|--------------------------------------------------------------------------------4---------|
|---2---4----------------------------------------------------------------------------------|
|------------------------------------------------------------------------------------------|

    the snow falls hard and don't you know    the winds of Thor are blowing cold
|------------------------------------------------------------------------------------|
|-----------------0---2---2---4---4-------------------------0---0---2----------------|
|---1---1---3---------------------------------------------------------------------1--|
|-----------------------------------------------------------------------------4------|
|------------------------------------------------------------------------------------|
|------------------------------------------------------------------------------------|

          they're wealing steel that's bright and true
|------------------------------------------------------------------|
|---------------------0----2---2---4---4---------------------------|
|--1---1---1---2---------------------------------------------------|
|------------------------------------------------------------------|
|------------------------------------------------------------------|
|------------------------------------------------------------------|


   they carry news that must get through
|----------------------0---0---2---2---4----------------|
|---2---4---4---4---------------------------------------|
|-------------------------------------------------------|
|-------------------------------------------------------|
|-------------------------------------------------------|
|-------------------------------------------------------|


   they choose a path where no one goes
|---4---4---4---4---7-------4---4------------|
|--------------------------7-----------------|
|--------------------------------------------|
|--------------------------------------------|
|--------------------------------------------|
|--------------------------------------------|

they hold no quarter

(repeat riff 1 until the end.)
Tap to rate this tab
# A B C D E F G H I J K L M N O P Q R S T U V W X Y Z