Guitaretab - guitar tabs
Song name
# A B C D E F G H I J K L M N O P Q R S T U V W X Y Z

Led Zeppelin - Tangerine tab

----------------------------------------------------------------------------
			     Tangerine - Led Zeppelin
----------------------------------------------------------------------------
from the album Led Zeppelin III  1970


Tabbed by: Nowhere Man11

A great song. One of my favourite Led Zeppelin songs.

Tuning: eBGDAE


Chords:

Am:    x02210
Asus2: x02200
Asus4: x02230
C:     x32010 
C6/G:  302010
D:     xx0232
Dsus2: xx0230
Dsus4: xx0233
G:     320033


Look for these ones 
A* :   577655   
G*     355433 



Intro

Am          C6/G  

then play this and fade:

e|--5p4h5p4h5p4h5----------------------------------------------------------|
B|-------------------------------------------------------------------------|
G|-------------------------------------------------------------------------|
D|-------------------------------------------------------------------------|
A|-------------------------------------------------------------------------|
E|-------------------------------------------------------------------------|


Am Asus4 Asus2 G D

Am Asus4 Asus2 G D C

then play this quickly

e|------------------------------0------------------------------------------|
B|------------------------------1------------------------------------------|
G|--------0-----------0---------2------------------------------------------|
D|-----2-----------0------------2------------------------------------------|
A|--3--------3--2--------2--0---0------------------------------------------|
E|-------------------------------------------------------------------------|

Am A* G* D  D Dsus4 D Dsus2 D

Am     Asus4     Am  Asus2     G       D 
Mea  -  sur  -   ing a         summers day

Am  Asus4  Am   Asus2  G      D      C
I only     find it     slips away to grey

(then play this quickly)

e|------------------------------0------------------------------------------|
B|------------------------------1------------------------------------------|
G|--------0-----------0---------2------------------------------------------|
D|-----2-----------0------------2------------------------------------------|
A|--3--------3--2--------2--0---0------------------------------------------|
E|-------------------------------------------------------------------------|


    A*    G*       D  D Dsus4 D Dsus2 D      C  D
The hours bring me pain

G          C             D        
Tangerine,   tangerine

G                  C                 D
Living reflection,     of a dream

G                C                        D
I was her love,      she was my queen

G                         C             D(strum once)
And now a thousand years between


Am  Asus4  Am    Asus2  G       D
Thinking   how   it     used to be

Am   Asus4 Am    Asus2  G      D          C
Does she   still re  -  member times like these?

(then play this quickly)
[ Tab from: http://www.guitaretab.com/l/led-zeppelin/10246.html ]
e|------------------------------0------------------------------------------|
B|------------------------------1------------------------------------------|
G|--------0-----------0---------2------------------------------------------|
D|-----2-----------0------------2------------------------------------------|
A|--3--------3--2--------2--0---0------------------------------------------|
E|-------------------------------------------------------------------------|


   A*       G*  D      D  D Dsus4 D Dsus2 D
To think of us again?

And I do
 

(Solo)

e|--------------10--12--10~~~-----------------------------------------10---|
B|---10~~~--13-----------------13p12--13------13b--12-----12--12--13-------|
G|-------------------------------------------------------------------------|
D|-------------------------------------------------------------------------|
A|-------------------------------------------------------------------------|
E|-------------------------------------------------------------------------|

e|--------------------------10-----15b--15----19--19--19--17----17--17--19-|
B|--12p10--12---12--12--13-------------------------------------------------|
G|-------------------------------------------------------------------------|
D|-------------------------------------------------------------------------|
A|-------------------------------------------------------------------------|
E|-------------------------------------------------------------------------|

e|--20--20b~~~-------------------------------------------------------------|
B|-------------------------------------------------------------------------|
G|-------------------------------------------------------------------------|
D|-------------------------------------------------------------------------|
A|-------------------------------------------------------------------------|
E|-------------------------------------------------------------------------|

C  D

G          C             D
Tangerine,   tangerine

G                  C              D
Living reflection    of a dream

G                C                      D
I was her love,     she was my queen

G                          C           D(strum once)
And now a thousand years between


D D D D (up, down strumming) x6

D D D D Dsus4 Dsus4 D  x4

Am

e|--0------------------------0---------------------0-----------------3-----|
B|--0--0--1--3---(strum G)---1--1--1---(strum F)---0--1--0----------3------|
G|--0------------------------2---------------------0--------0------0-------|
D|--0------------------------3---------------------0--------------0--------|
A|--0------------------------3---------------------0-------------2---------|
E|--3----------------------------------------------3------------3----------|


Thats it! Enjoy!


Cheers

Nowhere Man


| /  slide up
| \  slide down
| h  hammer-on
| p  pull-off
| ~  vibrato
| +  harmonic
| x  Mute note
===============================================================================
Related for Tangerine tab
Tangerine chords by Led Zeppelin