Song name
# A B C D E F G H I J K L M N O P Q R S T U V W X Y Z

Led Zeppelin - The Crunge tab

Song: The Crunge
Band: Led Zeppelin
Album: Houses Of The Holy
Transcribed by: Drumskin


                                     Q    Q    Q    E.   S  S  S  
E||-------|-------|-------|-------|---------------------12-12-12-|
B||-------|-------|-------|-------|---------------------12-12-12-|
G||-------|-------|-------|-------|---------------------12-12-12-|
D||-------|-------|-------|-------|------------------------------|
A||-------|-------|-------|-------|------------------------------|
E||-------|-------|-------|-------|------------------------------|


   S  S S S  S S S S  S S S  S E.   S  S  S  
--14-12---x-12---x-x-12---x-12-----12-12-12-|
--14-12---x-12---x-x-12---x-12-----12-12-12-|
--14-12---x-12---x-x-12---x-12-----12-12-12-|
--------------------------------------------|
--------------------------------------------|
--------------------------------------------|


   S  S S S  S S S S  S S S  S E.   S  S  S  
--14-12---x-12---x-x-12---x-12-----12-12-12-|
--14-12---x-12---x-x-12---x-12-----12-12-12-|
--14-12---x-12---x-x-12---x-12-----12-12-12-|
--------------------------------------------|
--------------------------------------------|
--------------------------------------------|


   S  S S S  S S S S  S S S  S E.   S  S  S  
--14-12---x-12---x-x-12---x-12-----12-12-12-|
--14-12---x-12---x-x-12---x-12-----12-12-12-|
--14-12---x-12---x-x-12---x-12-----12-12-12-|
--------------------------------------------|
--------------------------------------------|
--------------------------------------------|


   S  S S S  S S S S  S S S  S Q         E.  S E  S S S S S E  S S S  
--14-12---x-12---x-x-12---x-12------||---5---5-5--x-x-x-4---5--x-x-x-|
--14-12---x-12---x-x-12---x-12------||---5---5-5--x-x-x-4---5--x-x-x-|
--14-12---x-12---x-x-12---x-12------||*--5---5-5--x-x-x-4---5--x-x-x-|
------------------------------------||*------------------------------|
------------------------------------||-------------------------------|
------------------------------------||-------------------------------|


  S E  E  E  E.  Q.        E.  S E  S S S S S E  S S S  
----4--5--4--5---6------|--5---5-5--x-x-x-4---5--x-x-x-|
----4--5--4--5---6------|--5---5-5--x-x-x-4---5--x-x-x-|
----4--5--4--5---6------|--5---5-5--x-x-x-4---5--x-x-x-|
------------------------|------------------------------|
------------------------|------------------------------|
------------------------|------------------------------|


  S E  E  E  E.  Q    Q         S E  E  E  E   S  S  S  
----4--5--4--5---3----4-----||----4--5--4--5--12-12-12-|
----4--5--4--5---3----4-----||----4--5--4--5--12-12-12-|
----4--5--4--5---3----4----*||----4--5--4--5--12-12-12-|
---------------------------*||-------------------------|
----------------------------||-------------------------|
----------------------------||-------------------------|


   S  S S S  S S S S  S S S  S E.   S  S  S  
--14-12---x-12---x-x-12---x-12-----12-12-12-|
--14-12---x-12---x-x-12---x-12-----12-12-12-|
--14-12---x-12---x-x-12---x-12-----12-12-12-|
--------------------------------------------|
--------------------------------------------|
--------------------------------------------|


   S  S S S  S S S S  S S S  S E.   S  S  S  
--14-12---x-12---x-x-12---x-12-----12-12-12-|
--14-12---x-12---x-x-12---x-12-----12-12-12-|
--14-12---x-12---x-x-12---x-12-----12-12-12-|
--------------------------------------------|
--------------------------------------------|
--------------------------------------------|


   S  S S S  S S S S  S S S  S E.   S  S  S  
--14-12---x-12---x-x-12---x-12-----12-12-12-|
--14-12---x-12---x-x-12---x-12-----12-12-12-|
--14-12---x-12---x-x-12---x-12-----12-12-12-|
--------------------------------------------|
--------------------------------------------|
--------------------------------------------|


   S  S S S  S S S S  S S S  S E.   S  S  S  
--14-12---x-12---x-x-12---x-12-----12-12-12-|
--14-12---x-12---x-x-12---x-12-----12-12-12-|
--14-12---x-12---x-x-12---x-12-----12-12-12-|
--------------------------------------------|
--------------------------------------------|
--------------------------------------------|


   S  S S S  S S S S  S S S  S E.   S  S  S  
--14-12---x-12---x-x-12---x-12-----12-12-12-|
--14-12---x-12---x-x-12---x-12-----12-12-12-|
--14-12---x-12---x-x-12---x-12-----12-12-12-|
--------------------------------------------|
--------------------------------------------|
--------------------------------------------|


   S  S S S  S S S S  S S S  S E.   S  S  S  
--14-12---x-12---x-x-12---x-12-----12-12-12-|
--14-12---x-12---x-x-12---x-12-----12-12-12-|
--14-12---x-12---x-x-12---x-12-----12-12-12-|
--------------------------------------------|
--------------------------------------------|
--------------------------------------------|


   S  S S S  S S S S  S S S  S E.   S  S  S  
--14-12---x-12---x-x-12---x-12-----12-12-12-|
--14-12---x-12---x-x-12---x-12-----12-12-12-|
--14-12---x-12---x-x-12---x-12-----12-12-12-|
--------------------------------------------|
--------------------------------------------|
--------------------------------------------|


   S  S S S  S S S S  S S S  S Q         E.  S E  S S S S S E  S S S  
--14-12---x-12---x-x-12---x-12------||---5---5-5--x-x-x-4---5--x-x-x-|
--14-12---x-12---x-x-12---x-12------||---5---5-5--x-x-x-4---5--x-x-x-|
--14-12---x-12---x-x-12---x-12------||*--5---5-5--x-x-x-4---5--x-x-x-|
------------------------------------||*------------------------------|
------------------------------------||-------------------------------|
------------------------------------||-------------------------------|


  S E  E  E  E.  Q.        E.  S E  S S S S S E  S S S  
----4--5--4--5---6------|--5---5-5--x-x-x-4---5--x-x-x-|
----4--5--4--5---6------|--5---5-5--x-x-x-4---5--x-x-x-|
----4--5--4--5---6------|--5---5-5--x-x-x-4---5--x-x-x-|
------------------------|------------------------------|
------------------------|------------------------------|
------------------------|------------------------------|


  S E  E  E  E.  Q    Q         S E  E  E  E   S  S  S  
----4--5--4--5---3----4-----||----4--5--4--5--12-12-12-|
----4--5--4--5---3----4-----||----4--5--4--5--12-12-12-|
----4--5--4--5---3----4----*||----4--5--4--5--12-12-12-|
---------------------------*||-------------------------|
----------------------------||-------------------------|
----------------------------||-------------------------|


   S  S S S  S S S S  S S S  S E.   S  S  S  
--14-12---x-12---x-x-12---x-12-----12-12-12-|
--14-12---x-12---x-x-12---x-12-----12-12-12-|
--14-12---x-12---x-x-12---x-12-----12-12-12-|
--------------------------------------------|
--------------------------------------------|
--------------------------------------------|


   S  S S S  S S S S  S S S  S E.   S  S  S  
--14-12---x-12---x-x-12---x-12-----12-12-12-|
--14-12---x-12---x-x-12---x-12-----12-12-12-|
--14-12---x-12---x-x-12---x-12-----12-12-12-|
--------------------------------------------|
--------------------------------------------|
--------------------------------------------|


   S  S S S  S S S S  S S S  S E.   S  S  S  
--14-12---x-12---x-x-12---x-12-----12-12-12-|
--14-12---x-12---x-x-12---x-12-----12-12-12-|
--14-12---x-12---x-x-12---x-12-----12-12-12-|
--------------------------------------------|
--------------------------------------------|
--------------------------------------------|


   S  S S S  S S S S  S S S  S E.   S  S  S  
--14-12---x-12---x-x-12---x-12-----12-12-12-|
--14-12---x-12---x-x-12---x-12-----12-12-12-|
--14-12---x-12---x-x-12---x-12-----12-12-12-|
--------------------------------------------|
--------------------------------------------|
--------------------------------------------|


   S  S S S  S S S S  S S S  S E.   S  S  S  
--14-12---x-12---x-x-12---x-12-----12-12-12-|
--14-12---x-12---x-x-12---x-12-----12-12-12-|
--14-12---x-12---x-x-12---x-12-----12-12-12-|
--------------------------------------------|
--------------------------------------------|
--------------------------------------------|


   S  S S S  S S S S  S S S  S E.   S  S  S  
--14-12---x-12---x-x-12---x-12-----12-12-12-|
--14-12---x-12---x-x-12---x-12-----12-12-12-|
--14-12---x-12---x-x-12---x-12-----12-12-12-|
--------------------------------------------|
--------------------------------------------|
--------------------------------------------|


   S  S S S  S S S S  S S S  S E.   S  S  S  
--14-12---x-12---x-x-12---x-12-----12-12-12-|
--14-12---x-12---x-x-12---x-12-----12-12-12-|
--14-12---x-12---x-x-12---x-12-----12-12-12-|
--------------------------------------------|
--------------------------------------------|
--------------------------------------------|


   S  S S S  S S S S  S S S  S Q         E.  S E  S S S S S E  S S S  
--14-12---x-12---x-x-12---x-12------||---5---5-5--x-x-x-4---5--x-x-x-|
--14-12---x-12---x-x-12---x-12------||---5---5-5--x-x-x-4---5--x-x-x-|
--14-12---x-12---x-x-12---x-12------||*--5---5-5--x-x-x-4---5--x-x-x-|
------------------------------------||*------------------------------|
------------------------------------||-------------------------------|
------------------------------------||-------------------------------|


  S E  E  E  E.  Q.        E.  S E  S S S S S E  S S S  
----4--5--4--5---6------|--5---5-5--x-x-x-4---5--x-x-x-|
----4--5--4--5---6------|--5---5-5--x-x-x-4---5--x-x-x-|
----4--5--4--5---6------|--5---5-5--x-x-x-4---5--x-x-x-|
------------------------|------------------------------|
------------------------|------------------------------|
------------------------|------------------------------|


  S E  E  E  E.  Q    Q         S E  E  E  E   S  S  S  
----4--5--4--5---3----4-----||----4--5--4--5--12-12-12-|
----4--5--4--5---3----4-----||----4--5--4--5--12-12-12-|
----4--5--4--5---3----4----*||----4--5--4--5--12-12-12-|
---------------------------*||-------------------------|
----------------------------||-------------------------|
----------------------------||-------------------------|


   S  S S S  S S S S  S S S  S E.   S  S  S  
--14-12---x-12---x-x-12---x-12-----12-12-12-|
--14-12---x-12---x-x-12---x-12-----12-12-12-|
--14-12---x-12---x-x-12---x-12-----12-12-12-|
--------------------------------------------|
--------------------------------------------|
--------------------------------------------|


   S  S S S  S S S S  S S S  S E.   S  S  S  
--14-12---x-12---x-x-12---x-12-----12-12-12-|
--14-12---x-12---x-x-12---x-12-----12-12-12-|
--14-12---x-12---x-x-12---x-12-----12-12-12-|
--------------------------------------------|
--------------------------------------------|
--------------------------------------------|


   S  S S S  S S S S  S S S  S E.   S  S  S  
--14-12---x-12---x-x-12---x-12-----12-12-12-|
--14-12---x-12---x-x-12---x-12-----12-12-12-|
--14-12---x-12---x-x-12---x-12-----12-12-12-|
--------------------------------------------|
--------------------------------------------|
--------------------------------------------|


   S  S S S  S S S S  S S S  S E.   S  S  S  
--14-12---x-12---x-x-12---x-12-----12-12-12-|
--14-12---x-12---x-x-12---x-12-----12-12-12-|
--14-12---x-12---x-x-12---x-12-----12-12-12-|
--------------------------------------------|
--------------------------------------------|
--------------------------------------------|


   S  S S S  S S S S  S S S  S E.   S  S  S  
--14-12---x-12---x-x-12---x-12-----12-12-12-|
--14-12---x-12---x-x-12---x-12-----12-12-12-|
--14-12---x-12---x-x-12---x-12-----12-12-12-|
--------------------------------------------|
--------------------------------------------|
--------------------------------------------|


   S  S S S  S S S S  S S S  S E.   S  S  S  
--14-12---x-12---x-x-12---x-12-----12-12-12-|
--14-12---x-12---x-x-12---x-12-----12-12-12-|
--14-12---x-12---x-x-12---x-12-----12-12-12-|
--------------------------------------------|
--------------------------------------------|
--------------------------------------------|


   S  S S S  S S S S  S S S  S E.   S  S  S  
--14-12---x-12---x-x-12---x-12-----12-12-12-|
--14-12---x-12---x-x-12---x-12-----12-12-12-|
--14-12---x-12---x-x-12---x-12-----12-12-12-|
--------------------------------------------|
--------------------------------------------|
--------------------------------------------|


   S  S S S  S S S S  S S S  S E.   S  S  S  
--14-12---x-12---x-x-12---x-12-----12-12-12-|
--14-12---x-12---x-x-12---x-12-----12-12-12-|
--14-12---x-12---x-x-12---x-12-----12-12-12-|
--------------------------------------------|
--------------------------------------------|
--------------------------------------------|


   S  S S S  S S S S  S S S  S E.   S  S  S  
--14-12---x-12---x-x-12---x-12-----12-12-12-|
--14-12---x-12---x-x-12---x-12-----12-12-12-|
--14-12---x-12---x-x-12---x-12-----12-12-12-|
--------------------------------------------|
--------------------------------------------|
--------------------------------------------|


   S  S S S  S S S S  S S S  S E.   S  S  S  
--14-12---x-12---x-x-12---x-12-----12-12-12-|
--14-12---x-12---x-x-12---x-12-----12-12-12-|
--14-12---x-12---x-x-12---x-12-----12-12-12-|
--------------------------------------------|
--------------------------------------------|
--------------------------------------------|


   S  S S S  S S S S  S S S  S E.   S  S  S  
--14-12---x-12---x-x-12---x-12-----12-12-12-|
--14-12---x-12---x-x-12---x-12-----12-12-12-|
--14-12---x-12---x-x-12---x-12-----12-12-12-|
--------------------------------------------|
--------------------------------------------|
--------------------------------------------|


   S  S S S  S S S S  S S S  S E.   S  S  S  
--14-12---x-12---x-x-12---x-12-----12-12-12-|
--14-12---x-12---x-x-12---x-12-----12-12-12-|
--14-12---x-12---x-x-12---x-12-----12-12-12-|
--------------------------------------------|
--------------------------------------------|
--------------------------------------------|


   S  S S S  S S S S  S S S  S E.   S  S  S  
--14-12---x-12---x-x-12---x-12-----12-12-12-|
--14-12---x-12---x-x-12---x-12-----12-12-12-|
--14-12---x-12---x-x-12---x-12-----12-12-12-|
--------------------------------------------|
--------------------------------------------|
--------------------------------------------|


   S  S S S  S S S S  S S S  S E.   S  S  S  
--14-12---x-12---x-x-12---x-12-----12-12-12-|
--14-12---x-12---x-x-12---x-12-----12-12-12-|
--14-12---x-12---x-x-12---x-12-----12-12-12-|
--------------------------------------------|
--------------------------------------------|
--------------------------------------------|


   S  S S S  S S S S  S S S  S E.   S  S  S  
--14-12---x-12---x-x-12---x-12-----12-12-12-|
--14-12---x-12---x-x-12---x-12-----12-12-12-|
--14-12---x-12---x-x-12---x-12-----12-12-12-|
--------------------------------------------|
--------------------------------------------|
--------------------------------------------|


   S  S S S  S S S S  S S S  S E.   S  S  S  
--14-12---x-12---x-x-12---x-12-----12-12-12-|
--14-12---x-12---x-x-12---x-12-----12-12-12-|
--14-12---x-12---x-x-12---x-12-----12-12-12-|
--------------------------------------------|
--------------------------------------------|
--------------------------------------------|


   S  S S S  S S S S  S S S  S E.   S  S  S  
--14-12---x-12---x-x-12---x-12-----12-12-12-|
--14-12---x-12---x-x-12---x-12-----12-12-12-|
--14-12---x-12---x-x-12---x-12-----12-12-12-|
--------------------------------------------|
--------------------------------------------|
--------------------------------------------|


   S  S S S  S S S S  S S S  S E.   S  S  S  
--14-12---x-12---x-x-12---x-12-----12-12-12-|
--14-12---x-12---x-x-12---x-12-----12-12-12-|
--14-12---x-12---x-x-12---x-12-----12-12-12-|
--------------------------------------------|
--------------------------------------------|
--------------------------------------------|


   S  S S S  S S S S  S S S  S E.   S  S  S  
--14-12---x-12---x-x-12---x-12-----12-12-12-|
--14-12---x-12---x-x-12---x-12-----12-12-12-|
--14-12---x-12---x-x-12---x-12-----12-12-12-|
--------------------------------------------|
--------------------------------------------|
--------------------------------------------|


   S  S S S  S S S S  S S S  S E.   S  S  S  
--14-12---x-12---x-x-12---x-12-----12-12-12-|
--14-12---x-12---x-x-12---x-12-----12-12-12-|
--14-12---x-12---x-x-12---x-12-----12-12-12-|
--------------------------------------------|
--------------------------------------------|
--------------------------------------------|


   S  S S S  S S S S  S S S  S E.   S  S  S  
--14-12---x-12---x-x-12---x-12-----12-12-12-|
--14-12---x-12---x-x-12---x-12-----12-12-12-|
--14-12---x-12---x-x-12---x-12-----12-12-12-|
--------------------------------------------|
--------------------------------------------|
--------------------------------------------|


   S  S S S  S S S S  S S S  S E.   S  S  S  
--14-12---x-12---x-x-12---x-12-----12-12-12-|
--14-12---x-12---x-x-12---x-12-----12-12-12-|
--14-12---x-12---x-x-12---x-12-----12-12-12-|
--------------------------------------------|
--------------------------------------------|
--------------------------------------------|


   S  S S S  S S S S  S S S  S Q.       
--14-12---x-12---x-x-12---x-12--------||
--14-12---x-12---x-x-12---x-12--------||
--14-12---x-12---x-x-12---x-12--------||
--------------------------------------||
--------------------------------------||
--------------------------------------||




Duration Legend
---------------
W - whole
H - half
Q - quarter
E - 8th
S - 16th
T - 32nd
X - 64th
. - note dotted
|-n-|  - n-tuplets


Tablature Legend
----------------
L - tied note
x - dead note
g - grace note
(n) - ghost note
> - accentuded note
NH - natural harmonic
AH - artificial harmonic
TH - tapped harmonic
SH - semi harmonic
PH - pitch harmonic
h - hammer on
p - pull off
b - bend
br - bendRelease
pb - preBend
pbr - preBendRelease
brb - bendReleaseBend
\n/ - tremolo bar dip
\n - tremolo bar dive
-/n - tremolo bar Release up
/n\ - tremolo bar inverted dip
/n - tremolo bar return
-\n - tremolo bar Release down
S - shift slide
s - legato slide
/ -  slide into from below or out of upwards
\ -  slide into from above or out of downwards
~ - vibrato
W - wide vibrato
tr - trill
TP - tremolo picking
T - tapping
S - slap
P - pop
< - fade in
^ - brush up
v - brush down
Tap to rate this tab
# A B C D E F G H I J K L M N O P Q R S T U V W X Y Z