Song name
# A B C D E F G H I J K L M N O P Q R S T U V W X Y Z

Led Zeppelin - The Girl I Love Intro tab

#

From: landmark@landmark-carwash.com

      Intro/ Main Riff

e:-----------------|-----------------|-----------------|-----------------|
B:-----------------|-----------------|-----------------|-----------------|
G:-----------------|-----------------|-----------------|-----------------|
D:-----------------|-----------------|-----------------|-----------------|
A:--0-0-5-3--------|-0-3-3-0-3/5-----|-----------------|-----------------|
E:-----------------|-----------------|-----------5-5-3-|--0-3/5----------|

e:-----------------|-----------------|-----------------|-----------------|
B:-----------------|-----------------|-----------------|-----------------|
G:-----------------|-----------------|-----------------|-----------------|
D:--0-0-5-3--------|-0-3-3-0-3/5-----|-----------------|-----------------|
A:-----------------|-----------------|-----------5-5-3-|--0-3/5----------|
E:-----------------|-----------------|-----------------|-----------------|
Tap to rate this tab
# A B C D E F G H I J K L M N O P Q R S T U V W X Y Z