Guitaretab - guitar tabs
Song name
# A B C D E F G H I J K L M N O P Q R S T U V W X Y Z

Led Zeppelin - When The Levee Breaks tab

sorry people, but the other versions of this are really, really bad.

THERE IS NO NEED FOR SLIDE TUNING

tune half a step up to F (F Bb Eb G# C F)
although this will still work in standard tuning

played through a faze

f |-------------------------------------------------|
C |-------------------------------------------------|
G#|-------------------------------------------------|
Eb|-------------------------------------------------|
Bb|-------------------------------------------------|
F |-3p0-0-0---3p0-0---5-3-0-5-----------------------|x16

f |-------------------------------------0-------0---|
C |-4-4-4-4-4-4-4-4-4/6-6-6-6-6\--2-0-2-0-2-0-2-0---|
G#|-4-4-4-4-4-4-4-4-4/6-6-6-6-6\--2-0-2-1-2-0-2-1---|
Eb|-4-4-4-4-4-4-4-4-4/6-6-6-6-6\--2-0-2-2-2-0-2-2---|
Bb|-------------------------------------2-------2---|
F |-------------------------------------0-------0---|x2

f |-------------------------------------------------|
C |-------------------------------------------------|
G#|-------------------------------------------------|
Eb|-------------------------------------------------|
Bb|-------------------------------------------------|
F |-3p0-0-0---3p0-0---5-3-0-5-----------------------|x16

f |-------------------------------------0-------0---|
C |-4-4-4-4-4-4-4-4-4/6-6-6-6-6\--2-0-2-0-2-0-2-0---|
G#|-4-4-4-4-4-4-4-4-4/6-6-6-6-6\--2-0-2-1-2-0-2-1---|
Eb|-4-4-4-4-4-4-4-4-4/6-6-6-6-6\--2-0-2-2-2-0-2-2---|
Bb|-------------------------------------2-------2---|
F |-------------------------------------0-------0---|x2

f |---------6-6-------------------------------------|
C |---8-8---6-6---------6-8-------------------------|
G#|---8-8---7-7---------6-8-------------------------|
Eb|---8-8---8-8---6-6-8-6-8-------------------------|
Bb|-6-----6-----6-----8-4-6-------------------------|
F |-------------------------------------------------|

f |-------------------------------------------------|
C |-11\9-8-11-----------------------6-9-11----------|
G#|-------------10\8-7-10---8\6-5-8-----------------|
Eb|-------------------------------------------------|
Bb|-------------------------------------------------|
F |-------------------------------------------------|x3

f |--------11----------------------11-9-9-11--------|
C |-11\9-8------11\9-8------11\9-8------------------|
G#|--------------------10---------------------------|
Eb|-------------------------------------------------|
Bb|-------------------------------------------------|
F |-------------------------------------------------|

f |--------11----------------------11-9-9-11\-------|
C |-11\9-8------11\9-8------11\9-8------------------|
G#|--------------------10---------------------------|
Eb|-------------------------------------------------|
Bb|-------------------------------------------------|
F |-------------------------------------------------|
[ Tab from: http://www.guitaretab.com/l/led-zeppelin/10269.html ]
f |-------------------------------------------------|
C |-------------------------------------------------|
G#|-------------------------------------------------|
Eb|-------------------------------------------------|
Bb|-------------------------------------------------|
F |-3p0-0-0---3p0-0---5-3-0-5-----------------------|x16

f |-------------------------------------0-------0---|
C |-4-4-4-4-4-4-4-4-4/6-6-6-6-6\--2-0-2-0-2-0-2-0---|
G#|-4-4-4-4-4-4-4-4-4/6-6-6-6-6\--2-0-2-1-2-0-2-1---|
Eb|-4-4-4-4-4-4-4-4-4/6-6-6-6-6\--2-0-2-2-2-0-2-2---|
Bb|-------------------------------------2-------2---|
F |-------------------------------------0-------0---|x2

f |-------------------------------------------------|
C |-------------------------------------------------|
G#|-------------------------------------------------|
Eb|-------------------------------------------------|
Bb|-------------------------------------------------|
F |-3p0-0-0---3p0-0---5-3-0-5-----------------------|x16

f |-------------------------------------0-------0---|
C |-4-4-4-4-4-4-4-4-4/6-6-6-6-6\--2-0-2-0-2-0-2-0---|
G#|-4-4-4-4-4-4-4-4-4/6-6-6-6-6\--2-0-2-1-2-0-2-1---|
Eb|-4-4-4-4-4-4-4-4-4/6-6-6-6-6\--2-0-2-2-2-0-2-2---|
Bb|-------------------------------------2-------2---|
F |-------------------------------------0-------0---|x2

f |-------------------------------------------------|
C |-11\9-8-11-----------------------6-9-11----------|
G#|-------------10\8-7-10---8\6-5-8-----------------|
Eb|-------------------------------------------------|
Bb|-------------------------------------------------|
F |-------------------------------------------------|x2

f |--------11----------------------11-9-9-11--------|
C |-11\9-8------11\9-8------11\9-8------------------|
G#|--------------------10---------------------------|
Eb|-------------------------------------------------|
Bb|-------------------------------------------------|
F |-------------------------------------------------|

f |--------11----------11----------11-9-9-11\-------|
C |-11\9-8------11\9-8------11\9-8------------------|
G#|-------------------------------------------------|
Eb|-------------------------------------------------|
Bb|-------------------------------------------------|
F |-------------------------------------------------|

f |------------------------11\9/11------------------|
C |-11\9-8---11\9-8---11----------------------------|
G#|-------------------------------------------------|
Eb|-------------------------------------------------|
Bb|-------------------------------------------------|
F |-------------------------------------------------|

f |--------11----------------------11-9-9-11--------|
C |-11\9-8------11\9-8------11\9-8------------------|
G#|--------------------10---------------------------|
Eb|-------------------------------------------------|
Bb|-------------------------------------------------|
F |-------------------------------------------------|

f |-------------------------------------------------|
C |-------------------------------------------------|
G#|-------------------------------------------------|
Eb|-------------------------------------------------|
Bb|-------------------------------------------------|
F |-3p0-0-0---3p0-0---5-3-0-5-----------------------|x16
Related for When The Levee Breaks tab
×
Best way to learn
"When The Levee Breaks"