Song name
# A B C D E F G H I J K L M N O P Q R S T U V W X Y Z

Led Zeppelin - Your Time Is Gonna Come tab

Help us improve GuitareTab! Take a short survey!
Not many of my tabs get in but this is the most accurate tab ive done and it took me a
to work it all out and put it on here so please rate it thanks.

This Your Time Is Gonna come and I no its 100% accurate, please rate and here it goes.
the start is an Organ intro which I havent tabbed yet but it shouldnt be too hard to work
Also note that in the recording Jimmy was very layed back and he missed out some notes 
this is how it should be played.

I mucked up the repeats so just listen to the track to see how many times to play stuff.

NOTE: The Song should be played with one finger to each string on the right hand eg.
- Bass Note. Index Finger - G string. Middle Finger - B string. Ring finger - e String

-------------------------------------------------------------------------------
			     Your Time Is gonna Come - Led Zeppelin
-------------------------------------------------------------------------------

Tuning: Standard - eBGDAE

Verse 1 & 2
e|--------2--------3--------0--------3--------0----------------------------|
B|------3--------3--------3--------3--------3-----------3-----3------------|
G|----2--------0--------0--------0--------0--------------------------------|
D|--0-------------------------------------------------0-3--0--3b-----------|
A|-----------3--------3---------------------------0-3----------------------|
E|-----------------------------3--------3----------------------------------|

Fill 1
(this is a differant guitar and the tuning on the e string is different as shown below.

d|--------7/19-----19/21/19---21/19----------------------------------------|
B|------------------------------------20/19--17/19-------------------------|
G|-------------------------------------------17/19-------------------------|
D|-------------------------------------------------------------------------|
A|-------------------------------------------------------------------------|
E|-------------------------------------------------------------------------|

Played with Fill 2 below
e|--------2--------3--------0--------3--------0----------------------------|
B|------3--------3--------3--------3--------3-----------3-----3------------|
G|----2--------0--------0--------0--------0--------------------------------|
D|--0-------------------------------------------------0-3--0--3b-----------|
A|-----------3--------3---------------------------0-3----------------------|
E|-----------------------------3--------3----------------------------------|

Fill 2
(again the e string is tuned to d like Fill 1 above)

d|----------------------19-------------------------------------------------|
B|--17/19------------19------17/19--12/10----------------------------------|
G|--17/19---17-17/19-----------------------12/11----6/7--------------------|
D|-------------------------------------------------------------------------|
A|-------------------------------------------------------------------------|
E|-------------------------------------------------------------------------|

e|--------2--------3--------0--------3--------0----------------------------|
B|------3--------3--------3--------3--------3-----------3-----3------------|
G|----2--------0--------0--------0--------0--------------------------------|
D|--0-------------------------------------------------0-3--0--3b-----------|
A|-----------3--------3---------------------------0-3----------------------|
E|-----------------------------3--------3----------------------------------|
that is twice this time then it goes

e|--------5---------7--------5--------3--------3--------5--------3---------|
B|-------7---------5--------5--------5-------5--------3--------3-----------|
G|-----7---------6--------6--------5-------5--------4--------4-------------|
D|---0---------0--------0--------0-------0--------0--------0---------------|
A|-------------------------------------------------------------------------|
E|-------------------------------------------------------------------------|
   Play twice
Ok now we're back to the fill guitar which is played over the stuff just above
Fill 3
d|--------------7----------------------------------------------------------|
B|------------7----/12---12/10----13-13--13/15-----------------------------|
G|---6/7--6/7------/12-----------------------------------------------------|
D|-------------------------------------------------------------------------|
A|-------------------------------------------------------------------------|
E|-------------------------------------------------------------------------|


Chorus with riff A below
e|----2-2-2-2-2-2-2------3-3-3-3-3-3-3-3-3-3-3-3---------------------------|
B|----3-3-3-3-3-3-3------0-0-0-0-0-0-0-0-0-0-0-0---------------------------|
G|----2-2-2-2-2-2-2------0-0-0-0-0-0-0-0-0-0-0-0-    ----------------------|
D|----0-0-0-0-0-0-0------0-0-0-0-0-0-0-0-0-0-0-0- x3 ----------------------|
A|-----------------------2-2-2-2-2-2-2-2-2-2-2-2-    ----------------------|
E|-----------------------3-3-3-3-3-3-3-3-3-3-3-3---------------------------|

Riff A same guitar as the Fills with a d e string
d|--19-------21/19----------------14/12------------------------------------|
B|--19-------21/19-----17/19------14/12------------------------------------|
G|--19-------21/19-----17/19------14/12------------------------------------|
D|-------------------------------------------------------------------------|
A|-------------------------------------------------------------------------|
E|-------------------------------------------------------------------------|


thats as much ias ive got so far but the rest of the song is basicly just bits from all
above. there is one more fill that goes like this (with the fill guitar tuning)

d|-----14/12-----------------------17--------------------------------------|
B|-----14/12-------15/17/15--17--------------------------------------------|
G|-----14/12---------------------------------------------------------------|
D|-------------------------------------------------------------------------|
A|-------------------------------------------------------------------------|
E|-------------------------------------------------------------------------|


ok then the rest is just taking bits and repeating them its easy enough so enjoy and
rate.
Related for Your Time Is Gonna Come tab