Song name
# A B C D E F G H I J K L M N O P Q R S T U V W X Y Z

Led Zeppelin - San Francisco tab

This my attempt at what is commonly referred to as the "San Francisco" part during Dazed 
Confused in Led Zeppelins classic "The Song Remains the Same" Not exact but I thought 
sounded really cool and its alot of fun to play around with.

http://www.youtube.com/watch?v=z19xIhUNgxI

Riff sounds very similar to 'Achilles Last Stand'

e:---0------0------0-----0----------------0~~~---0--0----------------|
B:-----0------0------0-----0--------------3~~~----3--3---------------|
G:----------------------------------------0~~~-----0--0--------------|>3x
D:--2------4------5------7------5---4-----0~~~-----------------------|
A:----------------------------------------3~~~-----------------------|
E:-------------------------------------------------------------------|

there are variations so just ad lib.

e:---0-----0---------------------------------------------------------|
B:-----0-----0-------------------------------------------------------|
G:-------------------------------------------------------------------|
D:--2-----4------5~~--5h7p5--4h5p4--2h4p2----------------------------|
A:------------------------------------------3~~~---------------------|
E:-------------------------------------------------------------------|

everywhere, everywhere...

(gently rock wah back and forth throughout)
e:--5--5--5--5--5--5--5--5-------------------------------------------|
B:--6--6--5--5--6--6--5--5-------------------------------------------|
G:--7--7--5--5--7--7--5--5-------------------------------------------|>4x
D:-------------------------------------------------------------------|
A:-------------------------------------------------------------------|
E:-------------------------------------------------------------------|

e:--5--5--5--5--5--5--5--5-------------------------------------------|
B:--6--6--6--5--6--6--6--5-------------------------------------------|
G:--7--7--7--5--7--7--7--5-------------------------------------------|>8x
D:-------------------------------------------------------------------|
A:-------------------------------------------------------------------|
E:-------------------------------------------------------------------|

I know! I know!

    Em
e:--0-0-0-0\-- \
B:--0-0-0-0--- \
G:--0-0-0-0 -- \
D:--2-2-2-2 -- \3X
A:--2-2-2-2--- \ /
E:--0-0-0-0--- \

    C
e:--0-0-0-0\-- \
B:--1-1-1-1--- \
G:--0-0-0-0 -- \
D:--2-2-2-2 -- \3X
A:--3-3-3-3--- \ /
E:--x-x-x-x/

    Em
e:--0-0-0-0\-- \
B:--0-0-0-0--- \
G:--0-0-0-0 -- \
D:--2-2-2-2 -- \3X
A:--2-2-2-2--- \ /
E:--0-0-0-0--- \

    C
e:--0-0-0-0\-- \
B:--1-1-1-1--- \
G:--0-0-0-0 -- \
D:--2-2-2-2 -- \3X
A:--3-3-3-3--- \ /
E:--x-x-x-x/

e:----------------------|------------------------------------|
B:----------------------|------------------------------------|
G:----------------------|------------------------------------|
D:-------------0-1-2----|------------------------------------|
A:-------0-2-3----------|------------------------------------|
E:-0-2-3-------------0~~|---3-2-0~----8p7h8------------------|
  fast...


  play around with E and C octaves
e:------------------------------------------|
B:------------------------------------------|
G:------------------------------------------|
D:-14s13s14s13s14----14s13s14s13s14---------|
A:------------------------------------------|
E:-12s11s12s11s12----12s11s12s11s12---------|


e:------------------------------------------|
B:------------------------------------------|
G:------------------------------------------|
D:-10s9s10s9s10----10s9s10s9s10-------------|
A:------------------------------------------|
E:-8s7s8s7s8-------8s7s8s7s8----------------|

then into the bow solo. i left alot out but these are the just the main riffs. enjoy!
Tap to rate this tab
# A B C D E F G H I J K L M N O P Q R S T U V W X Y Z