Song name
# A B C D E F G H I J K L M N O P Q R S T U V W X Y Z

Led Zeppelin - Bron Y Aur Stomp tab

ong: Bron-y-aur Stomp
Artist: Led Zeppelin
Album: Led Zeppelin III

OK first things first, there's nothing wrong with original but this is
easier to play in my mind.

The tuning and then put the capo on the 3rd fret.

DAF#DAD

(_) = harmonic
h = hammer-on
p = pull off
||   ||  = repeat

All notes are according to open strings being where the capo is.

INTRO:

--0--(7)-----------------0---0------|
--0--(7)-----------0------------0---|
--0--(7)---------------0----------0-|
--0--(7)----------0-----------------|
--0--(7)----------------------------|
--0--(7)----------------------------|

--0--(7)-----------0-----------|
--0--(7)------0---------0------|
--0--(7)--0---------0----------|
--0--(7)--------0----------0---|
--0--(7)-----------------------|
--0--(7)-----------------------|

||--------0------0-------0-----0-------0---------------||
||-----------------------------------------------------||
||---0---------------0--------------0------------------||
||----------0---------------0------------0--0--3--0----||
||-----------------------------------------------------||
||-----------------------------------------------------||
REPEAT THIS 4 TIMES.

------0-----0-----0-----0-----0---------0-----------------------|
------------------------------------------------------0---------|
--0------------0----------0--------------------0----------------|
--------0-----------0-----------0--0--3-----0----0--0-----------|
----------------------------------------------------------------|
----------------------------------------------------------------|

------------------------------------------------------------|
--------------0----0--------------0----------0-------0------|
--0------------------------0---------0----------------------|
----0--0--------0----0--0----0--0------0--0----3-0-0--------|
---------0--3------------------------------------------3--0-|
------------------------------------------------------------|

--------------------------------------------------------------------|
----------0------------0----------------------0----------0----0-----|
--0-----------0-----------0-----------------------------------------|
----0--0---------0--0--------3--0---------0-----0--0---0----0-------|
------------------------------------3--0-----------------------3--0-|
--------------------------------------------------------------------|
Tap to rate this tab
# A B C D E F G H I J K L M N O P Q R S T U V W X Y Z