Song name
# A B C D E F G H I J K L M N O P Q R S T U V W X Y Z

Led Zeppelin - Good Times Bad Times tab

Led Zeppelin - Good Times Bad Times Solo

This site needed just the solo tab for this song. I always wanted to learn
 
this solo and already knew the song and just wanted a solo tab for it.

So here it is..

e|-------12--------12-12----12--------12-------------------|
B|----12--------12-------12--------12----------------------|
G|14b-------14b----------------14b-------14br12h----14-12--|
D|-----------------------------------------------14--------|
A|---------------------------------------------------------|
E|---------------------------------------------------------|

e|--------------------------------------------------|
B|---------------------------15---------------------|
G|------12^----12-14-12-14b-----14--12-14-12--0-----|
D|14-14-----14--------------------------------------|
A|--------------------------------------------------|
E|--------------------------------------------------|

e|-----------------------------------|
B|20b~~~-----------17-17-17~~~20-17--|
G|-----------------------------------|
D|-----------------------------------|
A|-----------------------------------|
E|-----------------------------------|

e|--------------------------------------------------|
B|20b--20--17----17-20-h17----17--------------------|
G|------------19-----------19----19-19b~------------|
D|--------------------------------------------------|
E|--------------------------------------------------|

e|-------------------------------------------------------------12----12-|
B|-------------------------------------------12----12-15p12-15-12-15----|
G|-------------------------12----12-14p12-14----14----------------------|
D|------12----12-14p12-h14-12-14----------------------------------------|
A|14-14----14-----------------------------------------------------------|
E|----------------------------------------------------------------------|

e|15b--15~15^~----------17b-17b-17b-17b-17b-17b-|
B|------------17-15^-17-------------------------|
G|----------------------------------------------|
D|----------------------------------------------|
A|----------------------------------------------|
E|----------------------------------------------|

e|17b-15----15-17--17p16--17--16-17p16-17b-15b--|
B|-------17-------------------------------------|
G|----------------------------------------------|
D|----------------------------------------------|
A|----------------------------------------------|
E|----------------------------------------------|

e|----------------------------------------|
B|17~~17~17~17-15b-17b --------15~~~~~~~~-|
G|----------------------------------------|
D|----------------------------------------|
A|----------------------------------------|
E|----------------------------------------|
Tap to rate this tab
# A B C D E F G H I J K L M N O P Q R S T U V W X Y Z