Song name
# A B C D E F G H I J K L M N O P Q R S T U V W X Y Z

Led Zeppelin - Thank You tab

THANK YOU
Led Zeppelin
"Led Zeppelin II"

(Page, Plant)

INTRO:
  D				   D/C
|---------3-2-0-0-2-----2-0---2---|----------3-2-0-0-2-----2-0---2---|
|---------3-3-3-3-3-----3-3---3---|--------3-3-3-3-3-3-----3-3---3---|
|-----2---2-2-2-2-2-----2-2---2---|------0---0-0-0-0-0-----0-0---0---|
|-0-------------------------------|----------------------------------|
|---------------------------------|2h3-------------------------------|
|---------------------------------|----------------------------------|

 G/B                                D
|---------3-2-0-0-2-----2-0---2---|---------2-------2-2---3---3-3-3-|
|---------3-3-3-3-3-----3-3---3---|---------3-------3-3---3---3-3-3-|
|-------0-0-0-0-0-0-----0-0---0---|-2-------2-------2-2---2---2-2-2-|
|-----0---------------------------|-0-------------------------------|
|-0h2-----------------------------|---------------------------------|
|---------------------------------|---------------------------------|

  D                                VERSE:
|---------2---------2-2-3---3-3---|-2-------------------------------|
|---------3---------3-3-3---3-3---|-3-------------------------------|
|-2-------2---------2-2-2---2-2---|-2-------------------------------|
|-0-------------------------------|-0-------------------------------|
|---------------------------------|---------------------------------|
|---------------------------------|---------------------------------|
    				                      If the sun re-

  C                                G/B
|-----------------3-------3-------|-----------------3-------3-------|
|-------------1---------------1---|-------------3-------3-------3---|
|---------0-----------------------|---------0-----------------------|
|-----2---------------2-----------|-----0---------------------------|
|-3-------------------------------|-0h2-----------------------------|
|---------------------------------|---------------------------------|
  fused    to   shine,			            I would still be

  D                                 	
|-------------2---3---2-----------|-------------2---3---2-----------|
|---------3---------------3-------|---------3---------------3-------|
|-----2-----------------------2---|-----2-----------------------2---|
|-0-------------------------------|-0-------------------------------|
|---------------------------------|---------------------------------|
|---------------------------------|---------------------------------|
  loving  you.	  				 When   mountains

   C                               G/B
|------------------3-------3------|-------------------3-------3-----|
|--------------1------------------|---------------3-----------------|
|----------0----------------------|-----------0---------------------|
|------2---------------2-------2--|-------0---------------0-------0-|
|--3------------------------------|---2-----------------------------|
|---------------------------------|---------------------------------|
   crumble to the sea,                           There would still be

  D
|----------------2---3---2--------|----2-----2-2-----2-2-----2-2---2-2-|
|------------2--------------3-----|----3-----3-3-----3-3-----3-3---3-3-|
|--------3---------------------2--|----2-----2-2-----2-2-----2-2---2-2-|
|-----2---------------------------|0---0-----0-0-----0-0-----0-0---0-0-|
|-0-------------------------------|------------------------------------|
|---------------------------------|------------------------------------|
  you and me.

 Bm                                 E
|-7---7---7---7---7---7---7-------|-7---7---7-----7-7---7---7---0---|
|-7---7---7---7---7---7---7-------|-9---9---9-----9-9---9---9---0---|
|-7---7---7---7---7---7---7-------|-9---9---9-----9-9---9---9---0---|
|-9---9---9---9---9---9---9-------|-9---9---9-----9-9---9---9---0---|
|---------------------------------|---------------------------------|
|---------------------------------|---------------------------------|
           Kind woman, I give you   my    all;

 Bm                                 E       A
|-7---7---7-----7-7-------7-------|-7-------0-----------------------|
|-7---7---7-----7-7-------7-------|-9-------2-----------------------|
|-7---7---7-----7-7-------7-----9-|-9-------2-----------------------|
|-9---9---9-----9-9-------9-----9-|-9-------2-----------------------|
|---------------------------------|---------------------------------|
|---------------------------------|---------------------------------|
           Kind Woman,             nothing more.

  C				    G/B
|-0---0---0---0---0---0---0---0---|-3---3---3---3---3---3---3---3-3-|
|-1---1---1---1---1---1---1---1---|-3---3---3---3---3---3---3---3-3-|
|-0---0---0---0---0---0---0---0---|-0---0---0---0---0---0---0---0-0-|
|-2---2---2---2---2---2---2---2---|-0---0---0---0---0---0---0---0-0-|
|-3---3---3---3---3---3---3---3---|-2---2---2---2---2---2---2---2-2-|
|---------------------------------|---------------------------------|
          Little  drops of rain            whisper of the pain,

  D               Dsus4             D
|--2---2---2---2----3-3-3---3-3-3-3-|--2-------2-----2-2-2-2---2-2-2---|
|--3---3---3---3----3-3-3---3-3-3-3-|--3-------3-----3-3-3-3---3-3-3---|
|--2---2---2---2----2-2-2---2-2-2-2-|--2-------2-----2-2-2-2---2-2-2---|
|--0---0---0---0----0-0-0---0-0-0-0-|--0-------0-----0-0-0-0---0-0-0---|
|-----------------------------------|----------------------------------|
|-----------------------------------|----------------------------------|
 tears of love's lost in the days gone by.

  F                                G/B
|-1---1-1-1---1-1-1---1-1-1---1-1-|-3---3-3-3-----3-3-----3-3-----3-|
|-1---1-1-1---1-1-1---1-1-1---1-1-|-0---0-0-0-----0-0-----0-0-----0-|
|-2---2-2-2---2-2-2---2-2-2---2-2-|-0---0-0-0-----0-0-----0-0-----0-|
|-3---3-3-3---3-3-3---3-3-3---3-3-|-0---0-0-0-----0-0-----0-0-----0-|
|-3---3-3-3---3-3-3---3-3-3---3-3-|-2---2-2-2-----2-2-----2-2-----2-|
|---------------------------------|---------------------------------|
              My love is  strong.       With you there is no wrong. 

  D               Dsus4             D
|-2---2-2-2---2-2--3-3-3---3-3-3-3-|-2---2-2-2---2-2-2-2-2---2-2-2-2-|
|-3---3-3-3---3-3--3-3-3---3-3-3-3-|-3---3-3-3---3-3-3-3-3---3-3-3-3-|
|-2---2-2-2---2-2--2-2-2---2-2-2-2-|-2---2-2-2---2-2-2-2-2---2-2-2-2-|
|-0---0-0-0---0-0--0-0-0---0-0-0-0-|-0---0-0-0---0-0-0-0-0---0-0-0-0-|
|----------------------------------|---------------------------------|
|----------------------------------|---------------------------------|
  Together we shall go until we     die,         my, my,  my.

 Bm 				    E
|-7---7-7-7---7-7-7---7---7---7---|-7---7---7-----7-7-----7-7---7---|
|-7---7-7-7---7-7-7---7---7---7---|-9---9---9-----9-9-----9-9---9---|
|-7---7-7-7---7-7-7---7---7---7---|-9---9---9-----9-9-----9-9---9---|
|-9---9-9-9---9-9-9---9---9---9---|-9---9---9-----9-9-----9-9---9---|
|---------------------------------|---------------------------------|
|---------------------------------|---------------------------------|
      An inspiration's what you    are   to   me;

 Bm				    E
|-7-----7-7---7---7-----7-7-------|-7-------0-----------------------|
|-7-----7-7---7---7-----7-7-------|-9-------2-----------------------|
|-7-----7-7---7---7-----7-7-----9-|-9-------2-----------------------|
|-9-----9-9---9---9-----9-9-----9-|-9-------2-----------------------|
|---------------------------------|---------------------------------|
|---------------------------------|---------------------------------|
           inspiration,            look and see.
  
  G/B
|---------3-2-0-0-2-----2-0---2---|---------3-2-0-0-2-----2-0---2---|
|---------3-3-3-3-3-----3-3---3---|---------3-3-3-3-3-----3-3---3---|
|---------2-2-2-2-2-----2-2---2---|-----0---0-0-0-0-0-----0-0---0---|
|-0-------------------------------|-3-------------------------------|
|---------------------------------|---------------------------------|
|---------------------------------|---------------------------------|

|---------3-2-0-0-2-----2-0---2---|
|---------3-3-3-3-3-----3-3---3---|  
|-------0-0-0-0-0-0-----0-0---0---|  
|-----0---------------------------|
|-0h2-----------------------------|
|---------------------------------|

 ACOUSTIC SOLO:
|---------------------------------|-------7-------------------------|
|---------------------------------|-7-8-10-10-8-7---7-----------7-8-|
|---------------------4-6-7---7-9-|---------------9---9-7-6-7-9-----|
|-7-----------4-5-7---------------|---------------------------------|
|---------------------------------|---------------------------------|
|---------------------------------|---------------------------------|

|-----7---------------------------7-|---------5-7-----------5-7---5--------|
|-------10-10-8-8--(8)--7-8-10------|----5h7h8---------5h7h8-------8-7---8-|
|-----------------------------------|-6h7-----------6h7--------------------|
|-----------------------------------|--------------------------------------|
|-----------------------------------|--------------------------------------|
|-----------------------------------|--------------------------------------|

|-------------------------------------|---------------------------------|
|---8-8-8-7-7-7-----------------------|---------------------------------|
|---------------------------------7-R-|-7-------7-6-7-6-4-6---4---------|
|---------------------------7-9-------|-0-------------------7---5-7-4-5-|
|-------------------------------------|---------------------------------|
|-------------------------------------|---------------------------------|

|---------------------------------|-------------------7-5-----------|
|---------------------------------|-------------5-7-8-----8-7-5-7-8-|
|---------------------------------|-------4-6-7---------------------|
|-5---4-------------------4-5-7---|-----7---------------------------|
|---7---7-5-------5-4-5-7---------|---------------------------------|
|---------------------------------|---------------------------------|

			        VERSE:	   
				    D
|---------------------------------|-3-------------------------------|
|-8-7-7---7-------8-7-7---8-7-7---|-3-------------------------------|
|---------------------------------|-2-------------------------------|
|---------------------------------|---------------------------------|
|---------------------------------|---------------------------------|
|---------------------------------|---------------------------------|
					            And so today my

 (C)				   (G/B)
  world,   it smiles.   	            Your hand in mine,   we
 
 (D)
  walk the miles.
  				    C
|---------------------------------|---------------------------------|
|-----5p0-2p0---------------------|---------------------------------|
|-------------------3-------------|-------------1-------1-----------|
|---------------2/4---4\2---------|---------0-------0---------------|
|---------------------------0-----|-----2-------------------2p0---0-|
|-----------------------------2-0-|-3---------------------------3---|
|---------------------------------|---------------------------------|
            But thanks to you   it  will        be done,

 G/B				    D
|---------------------------------|-------------0---2-------2---2---|
|-----------------1---------------|---------3-------------------3---|
|-------------0-------2p0---------|-----2---------------2-------2---|
|-2p0-----0---------------2p0-----|-0---------------------------0---|
|-----2-----------------------0h2-|---------------------------------|
|---------------------------------|---------------------------------|
        for you to me      are the  only  one.

  Dsus4       D			   Bm
|-3---3-3-2---2-2-2-2-2---2-2-2-2-|-7---7-7-7---7-7-7---7---7---7---|
|-3---3-3-3---3-3-3-3-3---3-3-3-3-|-7---7-7-7---7-7-7---7---7---7---|
|-2---2-2-2---2-2-2-2-2---2-2-2-2-|-7---7-7-7---7-7-7---7---7---7---|
|-0---0-0-0---0-0-0-0-0---0-0-0-0-|-9---9-9-9---9-9-9---9---9---9---|
|---------------------------------|---------------------------------|
|---------------------------------|---------------------------------|
						Happiness      no
  E				   Bm
|-7---7---7-----7-7-----7-7---7---|-7---7---7---7---7---7---7---7---|
|-9---9---9-----9-9-----9-9---9---|-7---7---7---7---7---7---7---7---|
|-9---9---9-----9-9-----9-9---9---|-7---7---7---7---7---7---7---7---|
|-9---9---9-----9-9-----9-9---9---|-9---9---9---9---9---9---9---9---|
|-0---0---0-----0-0-----0-0---0---|---------------------------------|
|---------------------------------|---------------------------------|
  more be   sad;			          Happiness,

  E				   VERSE:
|-7-------0-----------------------|---------------------------------|
|-9-------2-----------------------|---------------------------------|
|-9-----2-2-----------------------|---------------------------------|
|-9-----2-2-----------------------|---------------------------------|
|-0-------------------------------|---------------------------------|
|---------------------------------|---------------------------------|
  I'm    glad.                                       If the sun  re-

 (C)			           (G/B)
 fused to shine,                                I would still be

 (D)	
  loving you.
				    C
|-----5-7-5-----------------------|-------------------------3---0---|
|-----------8-7-5-----------------|-------------1-------------------|
|-----------------2-4-2-----------|---------0-----------------------|
|-----------------------5-4-2---0-|-----2---------------------------|
|-----------------------------3---|-3-------------------------------|
|---------------------------------|---------------------------------|
                    When mountains  crumble to the sea,

 G/B				    D 
|---------------------------------|---------5---2---3p2-------------|
|---------------------------------|---------------------3---3p0-----|
|---------------------------------|-----2-----------------------2---|
|-----0h2p0-----------0h2p0-------|-0-------------------------------|
|-0h2---------0---0h2---------2---|---------------------------------|
|---------------------------------|---------------------------------|
          there would still be you and me.
				  
				    C	
|---------------------------------|---------------------------------|
|---------------------------------|---------------------------------|
|-2p0-----------------------------|---------------------------------|
|-----4---2p0-----0h2p0---0-------|---------------------------------|
|-------------0h2-------2-----2---|-3-------------------------------|
|---------------------------------|---------------------------------|

 G/B				    D
|---------------------------------|---------------------------------|
|---------------------------------|---------------------------------|
|---------------------------------|-2-------------------------------|
|---------------------------------|-0-------------------------------|
|-2-------------------------------|---------------------------------|
|---------------------------------|---------------------------------|
Tap to rate this tab
# A B C D E F G H I J K L M N O P Q R S T U V W X Y Z