Song name
# A B C D E F G H I J K L M N O P Q R S T U V W X Y Z

Led Zeppelin - Traveling Riverside Blues tab

/12-12-12-12--0-3-5-3-0------------------------------------------------------|
/12-12-12-12--0-3-5-3-0--- ---3------3------3------3-------------------------|
/12-12-12-12--0-3-5-3-0-- --0------0------0------0---------------------------|
/12-12-12-12--0-3-5-3-0- -3------2------0-------------------0----------------|
----------------------------------------------3--------1/2-------------------|
-----------------------------------------------------------------------------|

/12-12-12-12--0-3-5-3-0------------------------------------------------------|
/12-12-12-12--0-3-5-3-0--- ---3------3------3------3-------------------------|
/12-12-12-12--0-3-5-3-0-- --0------0------0------0---------------------------|
/12-12-12-12--0-3-5-3-0- -3------2------0------------------------------------|
----------------------------------------------3--------1/2-------------------|
------------------------------------------------------------3----------------|


-----------------------------------------------------------------------------|
-----------------------------------------------------------------------------|
--0-----0-----0-----0--------------------------------------------------------|
--0-0-0-2-2-2-3-3-3-2-0------------------------------------------------------|
-----------------------------------------------------------------------------|
-----------------------------------------------------------------------------|
Tap to rate this tab
# A B C D E F G H I J K L M N O P Q R S T U V W X Y Z