Song name
# A B C D E F G H I J K L M N O P Q R S T U V W X Y Z

Led Zeppelin - Poor Tom tab

-------------------------------------------------------------------------------
			     Poor Tom - Led Zeppelin 
-------------------------------------------------------------------------------
Tabbed by: R8:31b

Tuning: C-A-C-G-C-E or Open C6 Tuning

       Wx18
E|--------|
C|--------|
G|--------|
C|---R----|
A|--------|
C|--------|


E|--------|--------|--------|--------|--------|--------|--------------0---------------|
C|--------|--------|--------|--------|--------|--------|----------0-------------------|
G|--------|--------|--------|--------|--------|--------|-2----2-2----------2----2-----|
C|---R----|---R----|---R----|---R----|---R----|---R----|-0----0-0---------------0---0-|
A|--------|--------|--------|--------|--------|--------|------------------------------|
C|--------|--------|--------|--------|--------|--------|------------------------------|


E|--------------0---------------|---------------0----0-0-----|------------------------|
C|----------0-------------------|------0----0----------------|-0-----0---0------------|
G|-1----1-1----------1----1-----|------------------------0---|---------------2----2-2-|
C|-0----0-0---------------0---0-|-0--------------------------|------------------------|
A|------------------------------|----------------------------|------------------------|
C|------------------------------|----------------------------|------------------------|


E|----------3---0--------------|----------3---0--------------|---------------------------------|
C|-----------------------------|------------------0----0---0-|-0---0-0-0---0-0-----0---0-0-----|
G|-2---2--2---------2----2---2-|-1---1--1--------------------|------------------0----------0---|
C|-----------------------------|-----------------------------|---------------------------------|
A|-----------------------------|-----------------------------|---------------------------------|
C|-----------------------------|-----------------------------|---------------------------------|


E|----------------------------|------5---5----5----5---5-|-5----5---5-5---5---5---5---5---|
C|-0-----0--0--0---0----0---0-|------3---4----3----3---3-|-3----3---3-4---3---4---3---4---|
G|----------------------------|------5---5----5----5---5-|-5----5---5-5---5---5---5---5---|
C|----------------------------|--------------------------|--------------------------------|
A|----------------------------|--------------------------|--------------------------------|
C|----------------------------|--------------------------|--------------------------------|


E|-5----0----------------|----------------------------|-3---0----0-0------0----0---0-|
C|-4----0----------------|-0----0---0------0----0---0-|--------------3---------------|
G|-5----------0----0---0-|------------0---------------|------------------------------|
C|-----------------------|----------------------------|------------------------------|
A|-----------------------|----------------------------|------------------------------|
C|-----------------------|----------------------------|------------------------------|


E|-3---3-3-------------------------|-3---0---0-0-----0---0--0-|--------------------------------|
C|-----------------0---0-0---------|-------------3------------|-0---0-0---------0---0----------|
G|--------0----0-0---------0---0-0-|--------------------------|---------0---0-0-------0----0-0-|
C|---------------------------------|--------------------------|--------------------------------|
A|---------------------------------|--------------------------|--------------------------------|
C|---------------------------------|--------------------------|--------------------------------|


E|-3---0---0-0----0----0---0-|-3---3-3-------------------------|-3---0--0-0------0----0---0-|
C|------------3--------------|-----------------0---0-0---------|------------3---------------|
G|---------------------------|--------0----0-0---------0---0-0-|----------------------------|
C|---------------------------|---------------------------------|----------------------------|
A|---------------------------|---------------------------------|----------------------------|
C|---------------------------|---------------------------------|----------------------------|


E|-------------------0---0----0---0-|----------------------|-----------------------|
C|-0----0-0----------0---0----0---0-|-------0---0----0---0-|-0-----3----0----0---0-|
G|----------0----0-0----------------|-------0---0----0---0-|-0---------------------|
C|----------------------------------|----------------------|-----------------------|
A|----------------------------------|----------------------|-----------------------|
C|----------------------------------|----------------------|-----------------------|


E|------0--------0----0---0-|-0---------------------|-3---0----0-0------0----0---0-|
C|-0--------3---------------|-------3----0----0---0-|--------------3---------------|
G|--------------------------|-----------------------|------------------------------|
C|--------------------------|-----------------------|------------------------------|
A|--------------------------|-----------------------|------------------------------|
C|--------------------------|-----------------------|------------------------------|


E|-3---3-3-------------------------|-3---0---0-0----0----0---0-|-3---3-3-------------------|
C|-----------------0---0-0---------|------------3--------------|--------------0------------|
G|--------0----0-0---------0---0-0-|---------------------------|--------0---------0----0-0-|
C|---------------------------------|---------------------------|---------------------------|
A|---------------------------------|---------------------------|---------------------------|
C|---------------------------------|---------------------------|---------------------------|


E|------------3---0--------------|------------3---0--------------|------------0----0-0-----|
C|-------------------------------|-------------------------------|------0------------------|
G|-2----2---2---------2----2---2-|-1----1---1---------0----0---0-|-0-------------------0---|
C|-------------------------------|-------------------------------|-------------------------|
A|-------------------------------|-------------------------------|-------------------------|
C|-------------------------------|-------------------------------|-------------------------|


E|--------------------------------|-----------3---0------------|-----------3---0-------------|
C|-0--0-0----------0--0-----------|----------------------------|-----------------------------|
G|--------0----0-0-------2----2-2-|-2----2--2-------2----2---2-|-1----1--1--------0----0---0-|
C|--------------------------------|----------------------------|-----------------------------|
A|--------------------------------|----------------------------|-----------------------------|
C|--------------------------------|----------------------------|-----------------------------|


E|-----------------------|-----------------------------|----------0----5---5---5---|
C|------0----------------|-0----0-0-------0------------|------0--------3---3---4---|
G|-0----------0----0---0-|----------0-----0---0----0-0-|-0-------------5---5---5---|
C|-----------------------|-----------------------------|---------------------------|
A|-----------------------|-----------------------------|---------------------------|
C|-----------------------|-----------------------------|---------------------------|


E|-5---5---5---5---5---5---5----|--------------------|-----------------0----0---0-|
C|-3---4---3---4---3---4---4----|------0-----0----0--|-0----0---0-0----0----0---0-|
G|-5---5---5---5---5---5---5----|------0-----0----0--|-0----0---0-0---------------|
C|------------------------------|--------------------|-0----0---0-----------------|
A|-------------------------2----|-0------------------|----------------------------|
C|------------------------------|-----------------0--|-0--------------------------|


E|-3---0---0-0-----0----0---0-|-3---3-3-------------------------|-3---0---0-0-----0----0---0-|
C|------------3---------------|-----------------0---0-0---------|-------------3--------------|
G|----------------------------|--------0----0-0--------0----0-0-|----------------------------|
C|----------------------------|---------------------------------|----------------------------|
A|----------------------------|---------------------------------|----------------------------|
C|----------------------------|---------------------------------|----------------------------|


E|--------------------------------|-3---0---0-0-----0----0--0-|-3---3-3-------------------------|
C|-0---0-0--------0---0-----------|------------3--------------|----------------0---0-0----------|
G|--------0----0-0-------0----0-0-|---------------------------|--------0----0-0--------0----0-0-|
C|--------------------------------|---------------------------|---------------------------------|
A|--------------------------------|---------------------------|---------------------------------|
C|--------------------------------|---------------------------|---------------------------------|


E|-3---0----0-0------0----0---0-|-------------------0---0----0---0-|-0--------------------|
C|--------------3---------------|-0----0-0----------0---0----0---0-|-0-----0---0----0---0-|
G|------------------------------|----------0----0-0----------------|-------0---0----0---0-|
C|------------------------------|----------------------------------|----------------------|
A|------------------------------|----------------------------------|----------------------|
C|------------------------------|----------------------------------|----------------------|


E|--------------------|-----0-------0----0---0-|-0----------------|-3---0---0-0-----0----0---0-|
C|-0-----3---0---0--0-|-0-------3--------------|------3---0--0--0-|------------3---------------|
G|-0------------------|------------------------|------------------|----------------------------|
C|--------------------|------------------------|------------------|----------------------------|
A|--------------------|------------------------|------------------|----------------------------|
C|--------------------|------------------------|------------------|----------------------------|


E|-3---3-3------------------------|-3---0---0-0-----0----0--0-|-3----3-3--------------------|
C|----------------0---0-0---------|------------3--------------|----------------0------------|
G|--------0----0-0-------0----0-0-|---------------------------|----------0---------0----0-0-|
C|--------------------------------|---------------------------|-----------------------------|
A|--------------------------------|---------------------------|-----------------------------|
C|--------------------------------|---------------------------|-----------------------------|


E|------------3---0--------------|------------3---0--------------|------------0----0-0-----|
C|-------------------------------|-------------------------------|------0------------------|
G|-2----2---2---------2----2---2-|-1----1---1---------0----0---0-|-0-------------------0---|
C|-------------------------------|-------------------------------|-------------------------|
A|-------------------------------|-------------------------------|-------------------------|
C|-------------------------------|-------------------------------|-------------------------|


E|---------------------------------|----------3---0------------|------------3---0------------|
C|-0----0-0--------0---0-----------|---------------------------|-----------------------------|
G|---------0----0-0-------2----2-2-|-2----2--2------2----2---2-|-1----1---1--------0----0--0-|
C|---------------------------------|---------------------------|-----------------------------|
A|---------------------------------|---------------------------|-----------------------------|
C|---------------------------------|---------------------------|-----------------------------|


E|-----------------------|-----------------------------|----------0----5---5---5---|
C|------0----------------|-0----0-0-------0------------|------0--------3---3---4---|
G|-0----------0----0---0-|----------0-----0---0----0-0-|---------------5---5---5---|
C|-----------------------|-----------------------------|---------------------------|
A|-----------------------|-----------------------------|---------------------------|
C|-----------------------|-----------------------------|---------------------------|


E|-5---5---5---5---5---5---5----|--------------------|-----------------0----0---0-|
C|-3---4---3---4---3---4---4----|------0-----0----0--|-0----0---0-0----0----0---0-|
G|-5---5---5---5---5---5---5----|------0-----0----0--|-0----0---0-0---------------|
C|------------------------------|--------------------|-0----0---0-----------------|
A|-------------------------2----|-0------------------|----------------------------|
C|------------------------------|--------------------|----------------------------|


E|-2---0---0-0-----0----0---0-|-2----2-2--------------------------|-2--0----0-0-----0----0--0-|
C|------------3---------------|-----------------0----0-0----------|------------3--------------|
G|----------------------------|----------0---0-0---------0----0-0-|---------------------------|
C|----------------------------|-----------------------------------|-0-------------------------|
A|----------------------------|-----------------------------------|---------------------------|
C|-0--------------------------|-0----0-0--------------------------|---------------------------|


E|---------------------------------|-2---0---0-0-----0----0--0-|-2----2-2-------------------------|
C|-0----0-0--------0---0-----------|------------3--------------|-----------------0----0-0---------|
G|----------0---0-0-------0----0-0-|---------------------------|----------0---0-0--------0----0-0-|
C|---------------------------------|---------------------------|----------------------------------|
A|---------------------------------|---------------------------|----------------------------------|
C|-0----0-0------------------------|-0-------------------------|-0----0-0-------------------------|


E|-2---0----0-0------0----0---0-|-----------------------------|-3---0----0-0------0----0---0-|
C|--------------3---------------|-0----0-0-------0---0----0-0-|--------------3---------------|
G|------------------------------|----------0------------------|------------------------------|
C|-0----------------------------|-----------------------------|------------------------------|
A|------------------------------|-----------------------------|------------------------------|
C|------------------------------|-0----0-0--------------------|------------------------------|


E|-3---0----0-0------0----0---0-|-3---0----0-0------0----0---0-|------------------------------|
C|--------------3---------------|--------------3---------------|-3---0----0-0------0----0---0-|
G|------------------------------|------------------------------|--------------2---------------|
C|------------------------------|------------------------------|------------------------------|
A|------------------------------|------------------------------|------------------------------|
C|------------------------------|------------------------------|------------------------------|


E|-2---0----0-0------0----0---0-|-2----2-2--------------------|-2---0----0-0------0----0---0-|
C|--------------3---------------|----------------0---0----0-0-|--------------3---------------|
G|------------------------------|----------0------------------|------------------------------|
C|------------------------------|-----------------------------|-0----------------------------|
A|------------------------------|-----------------------------|------------------------------|
C|-0----------------------------|-0----0-0--------------------|------------------------------|


E|-----------------------------|------------3---0--------------|------------3---0--------------|
C|-0----0-0-------0---0----0-0-|-------------------------------|-------------------------------|
G|----------0------------------|-2----2---2---------2----2---2-|-1----1---1---------0----0---0-|
C|-----------------------------|-------------------------------|-------------------------------|
A|-0----0-0--------------------|-------------------------------|-------------------------------|
C|-----------------------------|-------------------------------|-------------------------------|


E|-------------------------|----------------------------------|------------3---0--------------|
C|------0-----0----0-0-----|-0----0-0----------0--------------|-------------------------------|
G|-0-------------------0---|----------0----0-0-----0----0---0-|-2----2---2---------2----2-----|
C|-------------------------|----------------------------------|-0-----------------------0---0-|
A|-------------------------|----------------------------------|-------------------------------|
C|-------------------------|----------------------------------|-------------------------------|


E|------------3---0--------------|-------------------------|-----------------------------|
C|-------------------------------|------0-----0----0-0-----|-0----0-0-------0------------|
G|-1----1---1---------0----0---0-|-0-------------------0---|----------0---------0----0-0-|
C|-0----0---0--------------------|-------------------------|-----------------------------|
A|-------------------------------|-------------------------|-----------------------------|
C|-------------------------------|-------------------------|-----------------------------|


E|----------0----5----5---5-|-5---5----5-5-5----5---5---5---|-5------------------------|
C|------0--------3----3---3-|-3---4----4-4-3----4---3---4---|-4----0-------------------|
G|-0-------------5----5---5-|-5---5----5-5-5----5---5---5---|-5--------------0---------|
C|--------------------------|-------------------------------|--------------------0---0-|
A|--------------------------|-------------------------------|-0----2-------------------|
C|--------------------------|-------------------------------|------------0-------------|


E|-----------------------------------|-0---0----0-0-0---0---0--0-|-0-----0----0--0-0---0-0-|
C|-0----0-0--------------------------|-0---0----0-0-0---0---0--0-|-0-----0----0--0-0---0-0-|
G|----------0----0-0-0---0-0-0---0-0-|-3---3----3-3-3---3---3--3-|-3-----3----3--3-3---3-3-|
C|-0----0-0--------------------------|-2---2----2-2-2---2---2--2-|-2-----2----2--2-2---2-2-|
A|-----------------------------------|-1---1----1-1-1---1---1--1-|-1-----1----1--1-1---1-1-|
C|-----------------------------------|---------------------------|-------------------------|


E|---------------------------|----------------------------|-1----1---1-1---1----1-1-1----|
C|------0-----0--0-----------|-0----0---0-0----0----0---0-|-0----0---0-0---0----0-0-0----|
G|------0-----0--0--0----0-0-|-0----0---0-0----0----0---0-|-0----0---0-0---0----0-0-0----|
C|------0-----0--0--0----0-0-|-0----0---0-0----0----0---0-|-2----2---2-2---2----2-2-2----|
A|---------------------------|----------------------------|-1----1---1-1---1----1-1-1----|
C|-0----------------0----0-0-|-0----0---0-0----0----0---0-|------------------------------|


E|-1---1----1---1-1---1-1-1---1-1-|--------------------------|-----------------------------|
C|-0---0----0---0-0---0-0-0---0-0-|-----0---0----0-----------|-0----0---0-0----0---0---0-0-|
G|-0---0----0---0-0---0-0-0---0-0-|----0---0----0---0----0-0-|-0----0---0-0----0---0---0-0-|
C|-2---2----2---2-2---2-2-2---2-2-|----0---0----0---0----0-0-|-0----0---0-0----0---0---0-0-|
A|-1---1----1---1-1---1-1-1---1-1-|--------------------------|-----------------------------|
C|--------------------------------|-0---------------0----0-0-|-0----0---0-0----0---0---0-0-|


E|-1----1---1-1----1---1-1---1-|-1----1---1---1---1-1---1-1-|------------------------------|
C|-0----0---0-0----0---0-0---0-|-0----0---0---0---0-0---0-0-|------------0---0---0---------|
G|-0----0---0-0----0---0-0---0-|-0----0---0---0---0-0---0-0-|-0----0---0-0---0---0-0---0-0-|
C|-2----2---2-2----2---2-2---2-|-2----2---2---2---2-2---2-2-|-0----0---0-0---0---0-0---0-0-|
A|-1----1---1-1----1---1-1---1-|-1----1---1---1---1-1---1-1-|------------------------------|
C|-----------------------------|----------------------------|-0----0---0-------------------|


E|------------------------------|-1----1-1-1--1----1---1-1---1-1-|-1---1---1---1-1-1---1-1-1---1-1-|
C|-0-----0--0--0---0-0-0----0-0-|-0----0-0-0--0----0---0-0---0-0-|-0---0---0---0-0-0---0-0-0---0-0-|
G|-0-----0--0--0---0-0-0----0-0-|-0----0-0-0--0----0---0-0---0-0-|-0---0---0---0-0-0---0-0-0---0-0-|
C|-0-----0--0--0---0-0-0----0-0-|-2----2-2-2--2----2---2-2---2-2-|-2---2---2---2-2-2---2-2-2---2-2-|
A|---------------------0----0-0-|-1----1-1-1--1----1---1-1---1-1-|-1---1---1---1-1-1---1-1-1---1-1-|
C|------------------------------|--------------------------------|---------------------------------|


E|-------------------------|----------------------------------|------------------------------------|
C|-0----0---0-0----0---0-0-|-0---0----0---0-0----0-0-0----0-0-|------------------------------------|
G|-0----0---0-0----0---0-0-|-0---0----0---0-0----0-0-0----0-0-|-3----3-3-3----3-3-2---2---2----2-2-|
C|-0----0---0-0----0---0-0-|-0---0----0---0-0----0-0-0----0-0-|-0----0-0-0----0-0-0---0---0----0-0-|
A|-------------------------|-------------------------0----0-0-|------------------------------------|
C|-0----0---0--------------|----------------------------------|------------------------------------|


E|-------------------------------------|----------------------------|------------------------------|
C|-------------------------------------|-------------0----0---0---0-|-0-----0--0--0----0-0---------|
G|-1----1-1-1----1-1-1----1-1-1----1-1-|-0---0---0---0----0---0---0-|-0-----0--0--0----0-0-2---2-2-|
C|-0----0-0-0----0-0-0----0-0-0----0-0-|-0---0---0---0----0---0---0-|-0-----0--0--0----0-0-0---0-0-|
A|-------------------------------------|----------------------------|------------------------------|
C|-------------------------------------|-0---0---0---0----0---0---0-|-0-----0--0--0----0-0-0---0-0-|


E|-----------------------------------|----------------------------------|--------------------------|
C|-----------------------------------|----------------------------------|-0----0-0-0-----0---0-0-0-|
G|-2----2-2-2----2-2-2---2--2----2-2-|-1----1-1-1---1-1-1---1--1----1-1-|-0----0-0-0-----0---0-0-0-|
C|-0----0-0-0----0-0-0---0--0----0-0-|-0----0-0-0---0-0-0---0--0----0-0-|-0----0-0-0-----0---0-0-0-|
A|-----------------------------------|----------------------------------|--------------------------|
C|-----------------------------------|----------------------------------|-0----0-0-0-----0---0-0-0-|


E|---------------------------------|----------------------------|----------------------------------|
C|-0----0---0-0---0---0---0----0-0-|-0---0---0---0----0---0-0-0-|-0----0-0-------------------------|
G|-0----0---0-0---0---0---0----0-0-|-0---0---0---0----0---0-0-0-|-0----0-0-0----0-0-0---0-0-0--0-0-|
C|-0----0---0-0---0---0---0----0-0-|-0---0---0---0----0---0-0-0-|-0----0-0-0----0-0-0---0-0-0--0-0-|
A|---------------------------------|----------------------------|----------0----0-0---------0--0-0-|
C|-0----0---0-0---0---0---0----0-0-|-0---0---0---0----0---0-0-0-|-0----0-0-0----0-0-0---0-0-0--0-0-|


E|-----------------------------|-----------------------------------|-------------------------------|
C|-0---0---0---0----0----0-0-0-|-0----0-0--------------------------|-0---0---0---0----0----0-0-0---|
G|-0---0---0---0----0----0-0-0-|-0----0-0-0----0-0-0---0-0-0---0-0-|-0---0---0---0----0----0-0-0---|
C|-0---0---0---0----0----0-0-0-|-0----0-0-0----0-0-0---0-0-0---0-0-|-0---0---0---0----0----0-0-0---|
A|-----------------------------|----------0----0-0---------0---0-0-|-------------------------------|
C|-0---0---0---0----0----0-0-0-|-0----0-0-0----0-0-0---0-0-0---0-0-|-0---0---0---0----0----0-0-0---|


E|----------------------------------|-----------------------------|--------------------------------|
C|-0----0-0-------------------------|-0---0---0---0----0----0-0-0-|-0---0-0------------------------|
G|-0----0-0-0---0-0-0---0-0-0---0-0-|-0---0---0---0----0----0-0-0-|-0---0-0-0---0-0-0---0-0-0--0-0-|
C|-0----0-0-0---0-0-0---0-0-0---0-0-|-0---0---0---0----0----0-0-0-|-0---0-0-0---0-0-0---0-0-0--0-0-|
A|----------0---0-0---------0---0-0-|-----------------------------|---------0---0-0---------0--0-0-|
C|-0----0-0-0---0-0-0---0-0-0---0-0-|-0---0---0---0----0----0-0-0-|-0---0-0-0---0-0-0---0-0-0--0-0-|


E|-------------------------|-------------------------------------|-------------------------------|
C|-0--0--0--0---0----0-0-0-|-0----0-0----------------------------|-0---0---0---0----0----0-0-0---|
G|-0--0--0--0---0----0-0-0-|-0----0-0-0----0-0-0----0-0-0----0-0-|-0---0---0---0----0----0-0-0---|
C|-0--0--0--0---0----0-0-0-|-0----0-0-0----0-0-0----0-0-0----0-0-|-0---0---0---0----0----0-0-0---|
A|-------------------------|----------0----0-0----------0----0-0-|-------------------------------|
C|-0--0--0--0---0----0-0-0-|-0----0-0-0----0-0-0----0-0-0----0-0-|-0---0---0---0----0----0-0-0---|


E|----------------------------------|-------------------------|---------------------------------|
C|-0----0-0-------------------------|-0--0--0--0---0----0-0-0-|-0---0-0-------------------------|
G|-0----0-0-0---0-0-0---0-0-0---0-0-|-0--0--0--0---0----0-0-0-|-0---0-0-0---0-0-0---0-0-0---0-0-|
C|-0----0-0-0---0-0-0---0-0-0---0-0-|-0--0--0--0---0----0-0-0-|-0---0-0-0---0-0-0---0-0-0---0-0-|
A|----------0---0-0---------0---0-0-|-------------------------|---------0---0-0---------0---0-0-|
C|-0----0-0-0---0-0-0---0-0-0---0-0-|-0--0--0--0---0----0-0-0-|-0---0-0-0---0-0-0---0-0-0---0-0-|


E|-------------------------------|-------------------------------------|--------|--------|
C|-0---0---0---0----0----0-0-0---|-0----0-0----------------------------|--------|--------|
G|-0---0---0---0----0----0-0-0---|-0----0-0-0----0-0-0----0-0-0----0-0-|--------|--------|
C|-0---0---0---0----0----0-0-0---|-0----0-0-0----0-0-0----0-0-0----0-0-|--------|--------|
A|-------------------------------|----------0----0-0----------0----0-0-|--------|--------|
C|-0---0---0---0----0----0-0-0---|-0----0-0-0----0-0-0----0-0-0----0-0-|--------|--------|
Tap to rate this tab
# A B C D E F G H I J K L M N O P Q R S T U V W X Y Z