Song name
# A B C D E F G H I J K L M N O P Q R S T U V W X Y Z

Led Zeppelin - In The Light tab

-------------------------------------------------------------------------------
			     In The Light  Led Zeppelin
-------------------------------------------------------------------------------
Tabbed by: Richard Deskin III
Email: someguy087@hotmail.com

e|--------------------------------------------------------------------------|
B|--------------------------------------------------------------------------|
G|-------------------------------9-------------------------------9----------|
D|----7--6----5------------------7----7--6----5------------------7----------|x2
A|---------------7----6--5-------7---------------7----6--5-------7----------|
E|----------------------------8--5----------------------------8--5----------|

e|--------------------------------------------------------------------------|
B|--------------------------------------------------------------------------|
G|--------------------------7---------------------------------7-------------|
D|----------7---5--7-----------7--5-7---------7---5--7-----------7--5--7---|x3
A|----0--0------------9--8--------------0--0------------9--8----------------|
E|--------------------------------------------------------------------------|

e|---------------------------------------------------------------------------|
B|---------------------------------------------------------------------------|
G|-----------------------7---------------------------------7-----------------|
D|------7---5--7-----------7--5--7--------7---5--7-----------7--5--7--7-6--5-|
A|0--0-------------9--8--------------0--0------------9--8-------------------7|
E|---------------------------------------------------------------------------|

e---------------------------------------------------------------------------|
B|--------------------------------------------------------------------------|
G|--------------------------7-----------------------------------------------|x7
D|----------7---5--7-----------7--5--7--------------------------------------|
A|----0--0------------9--8--------------------------------------------------|
E|--------------------------------------------------------------------------|

e|--------------------------------------------------------------------------|
B|--------------------------------------------------------------------------|
G|-------------------------------9-------------------------------9----------|
D|----7--6----5------------------7----7--6----5------------------7----------|x2
A|---------------7----6--5-------7---------------7----6--5-------7----------|
E|----------------------------8--5----------------------------8--5----------|

e|--------------------------------------------------------------------------|
B|-------------------------------------5----7--9-10-------------------------|
G|-------------------------------6--7---------------------------------------|x4
D|--------------------4--6--7-----------------------------------------------|
A|----0----4--5--7----------------------------------------------------------|
E|--------------------------------------------------------------------------|


e|---------------------------------------------------------------------------|
B|---------------------------------------------------------------------------|
G|----------------------------------------7----------------------------------|
D|--7--6----5-------------7---5--7-----------7--5--7-------------------------|
A|-------------7----0--0------------9--8-------------------------------------|
E|---------------------------------------------------------------------------|

e|--------------------------------------------------------------------------|
B|--------------------------------------------------------------------------|
G|-------------------------7------------------------------------------------|
D|----------7--5--7-----------7--5--7---------------------------------------|x6
A|----0--0-----------9--8---------------------------------------------------|
E|--------------------------------------------------------------------------|

e|--------------------------------------------------------------------------|
B|--------------------------------------------------------------------------|
G|-------------------------------9-------------------------------9----------|
D|----7--6----5------------------7----7--6----5------------------7----------|x2
A|---------------7----6--5-------7---------------7----6--5-------7----------|
E|----------------------------8--5----------------------------8--5----------|

e|-------------------------------------------------------------------------|
B|-------------------------------------5----7--9-10------------------------|
G|-------------------------------6--7--------------------------------------|x14
D|--------------------4--6--7----------------------------------------------|
A|----0----4--5--7---------------------------------------------------------|
E|-------------------------------------------------------------------------|
Tap to rate this tab
# A B C D E F G H I J K L M N O P Q R S T U V W X Y Z