Song name
# A B C D E F G H I J K L M N O P Q R S T U V W X Y Z

Led Zeppelin - Ramble On tab

Ok this is the tab for ramble on by Led Zeppelin and from watching It might Get Loud 
is how I saw Page play it.

On It might get loud Page played this first part on his les paul with the pick up 
pointed up (This is the acoustic part)
E----7----7----0----0----0-----------------------|
B----7----7----0----5----5-----------------------|
G----9----7----9----6---h7-----------------------|
D----9----7----7----7----7-----------------------|
A----7----7----9----0----0-----------------------|
E----7----7----X----X----X-----------------------|

This part in the studio is played on acoustic but with an electric part over, here is 
acoustic part

E----0----4----2----0----4----0----------------|
B----0----4----2----5----4----0----------------|
G----1----6----4----6----4----1----------------|        X2
D----2----6----4----7----6----2----------------|
A----2----4----2----0----4----2----------------|
E----0----4----2----X----4----0----------------|

And this is the electric guitar being played over the top with the pick up selector 
pointing up

E-----------0-------0----0-0----0-0----0-0-----------------|
B-----------0-------0----0-0----0-0----0-0-----------------|
G----11b----9s11----6----6s4----4s2----2s1-----------------|
D---------------------------------------------2------------|    X2
A----------------------------------------------------------|
E----------------------------------------------------------|

This is the main riff on the electric this part he flicks the pick up selector down. 
he mutes the 7th fret (all the notes) and does a few upstrokes.          |
                    v
E----7----7----7----X----0s-0s-0----2h3--------------------|
B----7----7----7----X----3s-5s-3----3----------------------|
G----9----7----9----X----0s-0s-0----2----------------------|
D----9----7----9----X----5s-7s-5---------------------------|
A----7----7----7----X----0s-0s-0---------------------------|
E----X----X----X----X----Xs-Xs-X---------------------------|

Then he goes back to the first part and changes the pick up selector up to play the 
part.

Thanks for viewing
SamStrat94  Ultimate Guitar
Tap to rate this tab
# A B C D E F G H I J K L M N O P Q R S T U V W X Y Z