Song name
# A B C D E F G H I J K L M N O P Q R S T U V W X Y Z

Led Zeppelin - Misty Mountain Hop tab

INTRO:
                    No Chord
e-|---------------|------------------------|------------------------|
B-|---------------|------------------------|------------------------|
G-|---------------|------------------------|------------------------|
D-|---------------|--------------2---------|--------------2---------|
A-|---------------|------------------------|------------------------|
E-|------------5--|-----3b----0-----0--5---|-----3b----0-----0--5---|

e-|-----------------------|------------------------|------------------------|
B-|-----------------------|------------------------|------------------------|
G-|-----------------------|------------------------|------------------------|
D-|-------------2---------|--------------2---------|--------------2---------|
A-|-----------------------|------------------------|------------------------|
E-|----3b----0-----0--5---|-----3b----0-----0--5---|-----3b----0-----0--5---|

VERSE:
e-|-------------------------|--------------------|----------------------|
B-|-------------------------|--------------------|----------------------|
G-|----------------------6--|------7----5----6---|---7----5----6----7---|
D-|--------------2-------5--|------7----4----5---|---7----4----5----7---|
A-|-------------------------|--------------------|----------------------|
E-|-----3b----0-----0-------|--------------------|----------------------|
                        Walk  -  in'   in   the   park  just  the  oth-

e-|----------------------|---------------------------|----------------------|
B-|----------------------|---------------------------|----------------------|
G-|---5----6----7----5---|--6---6---7-----5----6-----|----------------------|
D-|---4----5----7----4---|--5---5---7-----4----5-----|-------------2--------|
A-|----------------------|---------------------------|----------------------|
E-|----------------------|------------------------5--|----3b----0-----0--5--|
    er   day  ba  -  by,      what do you, what do you think I saw?

e-|-----------------------|------------------------|------------------------|
B-|-----------------------|------------------------|------------------------|
G-|-----------------------|------------------------|---------------------5--|
D-|-------------2---------|--------------2---------|--------------2------6--|
A-|-----------------------|------------------------|------------------------|
E-|----3b----0-----0--5---|-----3b----0-----0--5---|-----3b----0-----0------|
                                                                      Crowds

e-|--------------------|----------------------|---------------------|
B-|--------------------|----------------------|---------------------|
G-|------7----5----6---|---7----5----6----7---|--5----6----7----5---|
D-|------7----4----5---|---7----4----5----7---|--4----5----7----4---|
A-|--------------------|----------------------|---------------------|
E-|--------------------|----------------------|---------------------|
       of   peo  -  ple   sit  -  in'  on  the  grass  with  flowers

e-|-----------------------|------------------------|------------------------|
B-|-----------------------|------------------------|------------------------|
G-|----6----7----5-----6--|------------------------|------------------------|
D-|----5----7----4-----5--|--------------2---------|--------------2---------|
A-|-----------------------|------------------------|------------------------|
E-|-----------------------|-----3b----0-----0--5---|-----3b----0-----0---5--|
     in  their  hair  said,          "Hey, boy, do you wan - na  score?

                                                       D
e-|-----------------------|------------------------|---2-----2-------------|
B-|-----------------------|------------------------|---3-----3-------------|
G-|-----------------------|------------------------|---2-----2-------------|
D-|-------------2---------|--------------2---------|---0-----0-------------|
A-|-----------------------|------------------------|-----------------------|
E-|----3b----0-----0--5---|-----3b----0-----0------|-----------------------|
                            And you know how it is.          I really don't

      G                        N.C.
e-|---3-------3---3----------|------------------------|----------------------|
B-|---3-------3---3----------|------------------------|----------------------|
G-|---4-------4---4----------|------------------------|----------------------|
D-|---5-------5---5----------|--------------2---------|-------------2--------|
A-|---5-------5---5----------|------------------------|----------------------|
E-|---3-------5---5-------5--|-----3b----0-----0--5---|----3b----0-----0--5--|
    know                 what   time   it  was,                    whoah,  oh,

      D                     G                        N.C.
e-|---2-----2-----------|---3-------3---3----------|------------------------|
B-|---3-----3-----------|---3-------3---3----------|------------------------|
G-|---2-----2-----------|---4-------4---4----------|------------------------|
D-|---0-----0-----------|---5-------5---5----------|--------------2---------|
A-|---------------------|---5-------5---5----------|------------------------|
E-|---------------------|---3-------5---5-------5--|-----3b----0-----0--5---|
            so  I asked if I        could  stay  a - while.

e-|-----------------------|------------------------|------------------------|
B-|-----------------------|------------------------|------------------------|
G-|-----------------------|------------------------|------------------------|
D-|-------------2---------|--------------2---------|--------------2---------|
A-|-----------------------|------------------------|------------------------|
E-|----3b----0-----0--5---|-----3b----0-----0--5---|-----3b----0-----0--5---|

e-|-----------------------|------------------------||
B-|-----------------------|------------------------||
G-|-----------------------|---------------------5--||
D-|-------------2---------|--------------2------6--||
A-|-----------------------|------------------------||
E-|----3b----0-----0--5---|-----3b----0-----0------||

VERSE:
I didn't notice but it had got very dark and I was really 
        out of my mind.
Just then a policeman stepped up to me and asked us, said, "Please, hey
        would we all care to all get in line, get in line."
Well, you know, they asked us to stay for tea and have some fun; oh, oh,
        he said that his friends would all drop by.

Why don't you take a good look at yourself and describe what you see,
        and baby, baby, do you like it?
There you sit, sittin' spare like a book on a shelf rustin',
        ah, not tryin' to fight it.
You really don't care if they're comin'; oh, oh,
        I know that it's all a state of mind.

Oooh, ooh.
I really don't know.  I really don't know.

If you go down in the streets today, baby, you better,
        you better open your eyes.
Folk down there really don't care, really don't care, really don't care,
        which way the pressure lies, so I've decided what I'm gonna do now.
So I'm packin' my bags for the Misty Mountains where the spirits go now,
        over the hills where the spirits fly.

OUTRO:(main riff)
Oooh, oooh.
I really don't know.  I really don't know.

Tap to rate this tab
# A B C D E F G H I J K L M N O P Q R S T U V W X Y Z