Song name
# A B C D E F G H I J K L M N O P Q R S T U V W X Y Z

Led Zeppelin - Dazed & Confused tab

Classic rock and roll. This song rocks! Solo took long enough
though! Anyways, enjoy!

Tuning: Standard(eBGDAE)

Intro/Verse:                   

e|------12b------5b-----------|
B|-12b-------5b---------------|
G|-------------------12b--13b-|
D|----------------------------|
A|----------------------------|
E|----------------------------|

Chorus:

e|-------------------|
B|-4-4-4-------------|
G|-4-4-4-----3h5-----|
D|-4-4-4-3h5-----3h5-|
A|-2-2-2-------------|
E|-------------------|

Solo:

e|-----------------------------------------------------------------
B|------------------------------------------------15b---14-12-10-8-
G|-------------12------------------------12-14-12------------------
D|-------12-14----14-12------------12-14---------------------------
A|-12-14----------------14---12-14---------------------------------
E|-----------------------------------------------------------------

e|--------------------------------------------------------------------------------
B|-------------7--------5---8-------------7--------3-------2----------12h15-------
G|-10b--12--9b---10--7b---9---10b--12--9b---10--5b---7--4b---6--12h14-------12h14-
D|--------------------------------------------------------------------------------
A|--------------------------------------------------------------------------------
E|--------------------------------------------------------------------------------

e|-------------------------------15p14p12--15p14p12--15p14p12--15p14p12--15p14p12-
B|-12h15-------12h15-------12h15--------------------------------------------------
G|-------12h14-------12h14--------------------------------------------------------
D|--------------------------------------------------------------------------------
A|--------------------------------------------------------------------------------
E|--------------------------------------------------------------------------------

e|-12h15b17--15-12h15p12----------------------------------------------------------
B|-----------------------15b17r15-12h15p12----------------------------------------
G|-----------------------------------------14b16r14-12h14p12----------------------
D|-----------------------------------------------------------11-12-14-12-14-14b---
A|--------------------------------------------------------------------------------
E|--------------------------------------------------------------------------------

e|--------------------------------------------------------------------------------
B|---------------------------------------------7h8h10-8-7---------------7---------
G|--------------------------------------------------------9p7-------7-9-----------
D|-16-14-12-11-12---------------------------------------------9-7-9-----------7-5-
A|----------------14p12p10-12-12b14r10-12-12b-----------------------------5-7-----
E|--------------------------------------------------------------------------------

e|-15h17-------15h17-------15h17-------15h17-15-17-15-17-15-19----19--------21----
B|-------15h17-------15h17-------15h17-------------------------17----17--17----17-
G|--------------------------------------------------------------------------------
D|--------------------------------------------------------------------------------
A|--------------------------------------------------------------------------------
E|--------------------------------------------------------------------------------

e|-21-------19----15----12---5---3-----------5b-----------------------------------
B|----17-17----17----15----8---5----3-2b-3-0-------2p0h2-2p0h2-2p0h2--2b----------
G|--------------------------------------------------------------------------------
D|--------------------------------------------------------------------------------
A|--------------------------------------------------------------------------------
E|--------------------------------------------------------------------------------

e|----------------------------------|
B|----------------------------------|
G|-2p0h2-2-4-2-4--4p2p0-------------|
D|----------------------2p0---------| End of solo
A|--------------------------2p0-----|
E|------------------------------3p0-|

LZ RULES!
Tap to rate this tab
# A B C D E F G H I J K L M N O P Q R S T U V W X Y Z