Song name
# A B C D E F G H I J K L M N O P Q R S T U V W X Y Z

Led Zeppelin - Over The Hills & Far Away tab

Led Zeppelin - Over the Hills and Far Away

Standard tuning

x = mute
| = not a standard bar line; just used to separate music
~ = vibrato or held note
h = hammer on
p = pull off
s = slide
b = bend string up to indicated pitch/fret
r = release bend to indicated string/fret
/ = slide up from infinity
\ = slide down into infinity
o \_
o / repeat sign (always look for these!)


[Intro]
                  G 				  D
e:-------------------3-3-3------------------------2-2-2---|
B:-------------------3-3-3------------------------3-3-3---|
G:o--0h2p0-----0--0--0-0-0---0h2p0---0-4p2p0------2-2-2--o|
D:o--------4p0----0--0-0-0----------4---------0---0-0-0--o|
A:----------------2--2---2--------------------------------|
E:----------------3------3--------------------------------|
			
e:------------------3-3-3-----------------------2-2-2----------|
B:------------------3-3-3-----------------------3-3-3----------|
G:---------------0--0-0-0--0h2p0----0--4p2p0----2-2-2----------|
D:----2---0-2-0--0--0-0-0---------4----------0--0-0-0----------|
A:0-2---2--------2--2---2--------------------------------------|
E:---------------3---------------------------------------------|

e:--------------------------------------------------------------|
B:----------------3-3-3-----3-3-3-----3---------------------/-5-|
G:---0h2p0--------0-0-0-----0-0-0-----0---(strum and slide)---0-|
D:---------4p0----2-2-2-----0-0-0-----3---------------------/-5-|
A:-------------3--3-3-3--2--2-2-2--1--1---------------------/-3-|
E:--------------------------------------------------------------|

e:-------------------3-3--------------------------2-2-2---|
B:-------------------3-3-3------------------------3-3-3---|
G:o--0h2p0-----0--0--0-0-0----0h2p0---0-4p2p0-----2-2-2--o|
D:o--------4p0----0----0-0----------4---------0---0-0-0--o|
A:----------------2------2--------------------------------|
E:----------------3---------------------------------------|

e:------------------3-3-3-----------------------2-2-2---|
B:------------------3-3-3-----------------------3-3-3---|
G:---------------0--0-0-0--0h2p0----0--4p2p0----2-2-2---|
D:----2---0h2-0--0--0-0-0---------4----------0--0-0-0---|
A:0-2---2--------2--2---2-------------------------------|
E:---------------3--------------------------------------|

e:----------------------------------------2-2-2-0----|
B:-----------------3--3-------------------3-3-3-3----|
G:--0h2p0----------0--0-------------------2-2-2-2----|
D:---------4p0-----2--0------------0-2p0--0-0-0-0----|
A:-------------3---3--2-------0--2-------------------|
E:-----------------------3--3------------------------|

e:-----------------2-2-2-0----------------2-2-2--2-2-2--|
B:-----------------3-3-3-3----------------3-3-3--3-3-3--|
G:-----------------2-2-2-2----------------2-2-2--2-2-2--|
D:--------- 0h2-0--0-0-0-0---------0h2-0--0-0-0--0-0-0--|
A:------0h2---------------------0h2---------------------|
E:--3-3---------------------3-3-------------------------|

e:-------------------3-3-3----------------------2-2-2---|
B:-------------------3-3-3----------------------3-3-3---|
G:--0h2p0-----0---0--0-0-0--0h2p0---0--4p2p0----2-2-2---|
D:--------4p0-----0--0-0-0--------4----------0--0-0-0---|
A:----------------2--2---2------------------------------|
E:----------------3-------------------------------------|
Hey, lady...

e:------------------3-3----------------0h2-----2--2-2-2--|
B:------------------3-3-----3--5p3-5p3---------3--3-3-3--|
G:-0h2p0-----0------0-0--/4--------------------2--2-2-2--|
D:-------4p0--------0-0------------------------0--0-0-0--|
A:------------------2-2----------------------------------|
E:------------------3-3----------------------------------|
maybe ..... more than enough.

e:-------------------3-3-3--------------------------------2-2--|
B:-------------------3-3-3--------------------------------3-3--|
G:--0h2p0-----0---0--0-0-0------0h2p0---0--4p2p0----------2-2--|
D:--------4p0-----0--0-0-0------------4----------0--------0-0--|
A:----------------2--2---2-------------------------------------|
E:----------------3--------------------------------------------|
Oh, darlin, darlin' darlin' walk a while with me.

				[Repeat 3 times]
e:----------------------|-------------------2-2-2-0----|
B:-----------------3--3-|-------------------3-3-3-3----|
G:-0h2p0-----------0--0-|o------------------2-2-2-2---o|
D:-------4p0-------2--0-|o-----------0-2p0--0-0-0-0---o|
A:-----------3-----3--2-|-------0-2--------------------|
E:----------------------|--3--3------------------------|
Oh, you got so much....

   A   G
e:-9---7-----|
B:-10--8-----|
G:-9---7-----|
D:-----------|
A:-----------|
E:-----------|

This is played like this:

AAAA AAAA\GGGG GGGG/AAAA AAAA\GGGG

     Play twice then slide to
       
e:--9--9--9--9--/---|--7-7-7-7-\--|
B:--10-10-10-10-/---|--8-8-8-8-\--|
G:o-9--9--9--9--/--o|o-7-7-7-7-\-o|
D:o----------------o|o-----------o|
A:------------------|-------------|
E:------------------|-------------|
(Just listen to the song, and you'll figure it out.)

e:---3-2--2-0---|
B:---3-3--3-3---|
G:---2-2--2-2---|
D:---0-0--0-0---|
A:--------------|
E:--------------|

G(no 3rd) A(no 3rd)
e:---------------------------------------------|--3-2--2-0-|
B:---------------------------------------------|--3-3--3-3-|
G:--4-4-4-4-4----------6-X6-6X6x-6---4-4-4-4-4-|--2-2--2-2-|
D:--5-5-5-5-5----------7-X7-7X7x-7---5-5-5-5-5-|--0-0--0-0-|
A:--5-5-5-5-5----------7-X7-7X7x-7---5-5-5-5-5-|-----------|
E:--3-3-3-3-3----------5-X5-5X5x-5---3-3-3-3-3-|-----------|
1. Many have I loved, and many times been bitten.
2. Many times I've lied and many times I've listened.
3. Many dreams come true and some have silver linings.

e:---------------------------------------------|--3-2--2-0-|
B:---------------------------------------------|--3-3--3-3-|
G:--4-4-4-4-4----------6-X6-6X6x-6---4-4-4-4-4-|--2-2--2-2-|
D:--5-5-5-5-5----------7-X7-7X7x-7---5-5-5-5-5-|--0-0--0-0-|
A:--5-5-5-5-5----------7-X7-7X7x-7---5-5-5-5-5-|-----------|
E:--3-3-3-3-3----------5-X5-5X5x-5---3-3-3-3-3-|-----------|
1. Many times I've gazed along the open
2. Many times I've wondered how much there
3. I live for my dream and a pocketful


	    [Repeat Twice]
e:------------------|-----------------|
B:------------------|-----------------|
G:o-----------------|----------------o|
D:o-------------0---|----------------o|
A:-0-0-0-2--0-2-----|-0-0-0-2--0-2-0--|
E:------------------|-----------------|
1. road.
2. is to know.
____________________

| 1.2. | You play the above in number order.
Obviously, play all of number 1

e:---3-2--2-0--| first, the return to the beginning
B:---3-3--3-2--| and play number 2, then back to
G:---2-2--2-2--| start and play number 3 and continue
D:---0-0--0-0--|
A:-------------|
E:-------------|

_____________________
|3. |

e:--------------|
B:--------------|
G:--6-X6-6x-6x--|
D:--7-X7-7x-7x--|
A:--7-X7-7x-7x--|
E:--5-X5-5x-5x--|
3. of gold.


(Played in background by second guitarist)

e:--9--9--9--9--/---|--7-7-7-7-\--|
B:--10-10-10-10-/---|--8-8-8-8-\--|
G:o-9--9--9--9--/--o|o-7-7-7-7-\-o|
D:o----------------o|o-----------o|
A:------------------|-------------|
E:------------------|-------------|


[Guitar Solo] (Don't have it, SORRY!!) :(


e:------------------------------4-------------------16--18\-----|
B:---------------------------5------------------17--------------|
G:---------------1--3-3-3-6-------15-15-15--18------------------|
D:------------2-------------------------------------------------|
A:--1-1-1-4-----------------------------------------------------|
E:--------------------------------------------------------------|


e:------------------|-----------------|--3-2--2-0--|
B:------------------|-----------------|--3-3--3-3--|
G:o-----------------|----------------o|--2-2--2-2--|
D:o-------------0---|----------------o|--0-0--0-0--|
A:-0-0-0-2--0-2-----|-0-0-0-2--0-2-0--|------------|
E:------------------|-----------------|------------|

e:---------------------------------------------|--3-2--2-0-|
B:---------------------------------------------|--3-3--3-3-|
G:--4-4-4-4-4----------6-X6-6X6x-6---4-4-4-4-4-|--2-2--2-2-|
D:--5-5-5-5-5----------7-X7-7X7x-7---5-5-5-5-5-|--0-0--0-0-|
A:--5-5-5-5-5----------7-X7-7X7x-7---5-5-5-5-5-|-----------|
E:--3-3-3-3-3----------5-X5-5X5x-5---3-3-3-3-3-|-----------|
4. Mellow is the man who knows what he's been missin'
5. Many is a word that only leaves you guessin'

e:---------------------------------------------|--3-2--2-0-|
B:---------------------------------------------|--3-3--3-3-|
G:--4-4-4-4-4----------6-X6-6X6x-6---4-4-4-4-4-|--2-2--2-2-|
D:--5-5-5-5-5----------7-X7-7X7x-7---5-5-5-5-5-|--0-0--0-0-|
A:--5-5-5-5-5----------7-X7-7X7x-7---5-5-5-5-5-|-----------|
E:--3-3-3-3-3----------5-X5-5X5x-5---3-3-3-3-3-|-----------|
4. Many, many men can't see the
5. guessin' 'bout a thing you really ought

e:------------------|-----------------|--3-2--2-0--|
B:------------------|-----------------|--3-3--3-3--|
G:o-----------------|----------------o|--2-2--2-2--|
D:o-------------0---|----------------o|--0-0--0-0--|
A:-0-0-0-2--0-2-----|-0-0-0-2--0-2-0--|------------|
E:------------------|-----------------|------------|
4. open road.

e:--------------------2-|-------------------3----|
B:--------------------3-|-------------------0----|
G:--------------------2-|-------------------0----|
D:---------0-2-0------0-|---------0-2-0-----0----|
A:-----0-2-------2-0----|-----0-2-------2-0------|
E:-3-3------------------|-3-3--------------------|
5. to know.


(Some sort of organ/piano arr. for guitar)
e:--------------------2--|--------------|------------------------|
B:--------------------3--|--------------|------------------------|
G:--------------------2--|--0h2p0-----0~|--0h2p0---0--4p2p0------|
D:---------0-2-0------0--|--------4p0---|--------4----------0~---|
A:-----0-2-------2-0-----|--------------|------------------------|
E:-3-3-------------------|--------------|------------------------|

e:--------------|---------------|----------------3--3--0--0--2~--|
B:--------------|---------------|----------------3--3--1--1--3~--|
G:-0h2p0------0~|---------------|-0h2p0-----0~---0--0--0--0--2~--|
D:-------4p0----|-----0h2--2h4~-|-------4p0------0--0--2--2--0~--|
A:--------------|-0h2-----------|----------------2--2--3--3------|
E:--------------|---------------|----------------3--3------------|

e:-------------------3-------3---------3-----------3-------3---3-|
B:-----------------3-------3-------3-------3-----------3---3---3-|
G:-0h2p0---------0-------0-------0---0---0---0---0---0---0---0-0-|
D:--------4p0--------------------------------------------------0-|
A:-------------3~------2~------1~--------------3~--------------2-|
E:-------------------------------------------------------------3-|
Tap to rate this tab
# A B C D E F G H I J K L M N O P Q R S T U V W X Y Z