Song name
# A B C D E F G H I J K L M N O P Q R S T U V W X Y Z

Led Zeppelin - The Girl I Love She Got Long Black Wavy Hair tab

Help us improve GuitareTab! Take a short survey!
The Girl I love has long black wavy hair
Page/Plant
Produced by Jimmy Page
Led Zeppelin
BBC Sessions (live)

E|----------------------------------------------------|
B|----------------------------------------------------|
G|----------------------------------------------------| 2X
D|-------7-5---5~---5-7\------------------------------|
A|-----------7----7-----------------------------------|
E|--5-5-----------------------5-5-3-0-3-5-------------|

Riff b
E|-------------------------------------------------------|
B|-------------------------------------------------------|
G|-------------------------------------------------------|
D|--------12-10----10~----10-12\---------12-10----10/19\-|
A|--------------12-----12----------------------12--------|
E|--10-10-------------------------10--10-----------------|

Riff a (once)
E|--------------------------------------------------------|
B|--------------------------------------------------------|
G|--------------------------------------------------------|
D|-------7-5---5~---5-7\--------7-5---5-------------------|
A|-----------7----7-----------------7---------------------|
E|--5-5---------------------5-5---------------------------|


E|----------------------------------------------------|
B|----------------------------------------------------|
G|----------------------------------------------------|
D|--14-14-14-14-14-14-14-14---------------------------|
A|--14-14-14-14-14-14-14-14---------------------------|
E|--12-12-12-12-12-12-12-12---------------------------|

E|-----------------------------------------------------|
B|-----------------------------------------------------|
G|-----------------------------------------------------|
D|--12-12-12-12-10\5-----------------------------------|
A|--12-12-12-12-10\5-----------------------------------|
E|--10-10-10-10-8-\3-----------------------------------|

Riff a (once)
E|----------------------------------------------------|
B|----------------------------------------------------|
G|----------------------------------------------------|
D|-------7-5---5~---5-7\------------------------------|
A|-----------7----7-----------------------------------|
E|--5-5-----------------------5-5-3-0-3-5-------------|


I'm still working on the solo, though I was dissapointed this song wasn't on the sight
Related for The Girl I Love She Got Long Black Wavy Hair tab