Song name
# A B C D E F G H I J K L M N O P Q R S T U V W X Y Z

Led Zeppelin - No Quarter Acoustic tab

No Quarter - Led Zeppelin(acoustic)

tabbed by Desdinova
i made this after watching a video lesson on youtube
here is a link to the video, might be helpfull since you can't tab timing properly: 

http://www.youtube.com/watch?v=pQfShVRjrKk

this is my first tab, so i hope it is usefull for you all
credit goes to fetzcou for making the video lesson




|----1p0---0-------||----1p0---0---3/8-|
|--------3---3-----||--------3---3-----|
|--2-----------0h2-||--2---------------|
|0-----------------||0-----------------| 2X
|------------------||------------------|
|------------------||------------------|


|----------------------||----1p0---0-------|
|------1-1-1h3-3-3/5-5-||--------3---3-----|
|--2-2-----------------||--2-----------0h2-|
|0---------------------||0-----------------|
|----------------------||------------------|
|----------------------||------------------|


|----------------------||----1p0---0-------|
|--1-1-1-1-1h3---------||--------3---3-----|
|--------------0-0h2---||--2-----------0h2-|
|0---------------------||0-----------------|
|----------------------||------------------|
|----------------------||------------------|


|----------------------||----1p0---0-------|
|------1-1-1h3-3-3/5-5-||--------3---3-----|
|--2-2-----------------||--2-----------0h2-|
|0---------------------||0-----------------|
|----------------------||------------------|
|----------------------||------------------|


|----------------------||----1p0---0-------|
|--1-1-1-1-1h3-3-3/5-5-||--------3---3-----|
|----------------------||--2-----------0h2-|
|0---------------------||0-----------------|
|----------------------||------------------|
|----------------------||------------------|


|----------------0-0---||-0-0-0-0-1-1-3-3--|
|------1-1-1h3-3---3---||---------------4--|
|--2-2-------------3---||---------------3--|
|0----------------(0)--||------------------|
|----------------------||------------------|
|----------------------||------------------|


|5-3----5-3---5-5-5-5-5/8--------|
|----4------4-------------8-8/10-|
|--------------------------------|
|--------------------------------|
|--------------------------------|
|--------------------------------|


|----------------------------------------------------------|
|----------------------------------------------------------|
|----------------------------------------------------------|
|5/7-7-7-7---5/7-7-7-7---5/7-7-------------------------3---| 4X
|3/5-5-5-5---3/5-5-5-5---3/5-5---3/5-5-5-5/3-----3-5-3---5~|
|--------------------------------1/5-5-5-5/1---5-----------|


the end of the chorus can also be played like this

|------------------|
|------------------|
|------------------|
|--------3-0-------|
|----3-0-----------|
|3-5---------------|
Tap to rate this tab
# A B C D E F G H I J K L M N O P Q R S T U V W X Y Z