Song name
# A B C D E F G H I J K L M N O P Q R S T U V W X Y Z

Led Zeppelin - Nobodys Fault But Mine tab

Nobody's Fault But Mine




Intro (phaser guitar)
E-------------------------------|
B-------------------------------|
G-7-44-7-44-7-8^--7-44-744------|
D--------------------------5-8--|
A-------------------------------|
E-------------------------------|

E-------------------|
B-------------------|
G-7-44-7-8^-7-------|
D-------------9-7-5-|
A-------------------|
E-------------------|

E---------------------|
B---------------------|
G---------------------|
D-7-66-766-7--9-7-6-7-|
A---------------------|
E---------------------|

Riff 1

------------------------------|
------------------------------|
------------------------------|
------------------------------|
-7-55-----------7-55----------|
------7-55-3-0-------7-55-3-5-|

Riff 2

----------------------------------------------|
----------------------------------------------|
----------------------------------------------|
-----------------------------------9979-997---|
-5----5----5---7-x-7---5----5----5------------|
---77---77---0-----------77---77--------------|

Riff 3

---------------------|
---------------------|
---------------------|
---------------------|
-------0-0-00-00-0-0-|
-0-2-3---------------|
Tap to rate this tab
# A B C D E F G H I J K L M N O P Q R S T U V W X Y Z