Song name
# A B C D E F G H I J K L M N O P Q R S T U V W X Y Z

Led Zeppelin - Tea For One tab

TEA FOR ONE Guitar Tab
-------------------                                                                          
Standard Tuning

E|----------------|----------------|----------------|----------------|
B|----------------|----------------|----------------|----------------|
G|----------------|02----02--------|--02----02------|----02----02----|
D|----------------|03----03--------|--03----03------|----03----03----|
A|--------------01|-3--01-3--010---|01-3--01-3--010-|--01-3--01-3--01|
E|----------------|-------------313|---------------3|13--------------|

                                                     7/8 time
E|----------------|---------8------|--------8------8|--------------||
B|----------------|-------11-810---|------11-810-11-|810-----------||
G|----------------|----------------|----------------|--------------||
D|----------------|----------------|----------------|--------------||
A|----------------|----------------|----------------|--------------||
E|----------------|----------------|----------------|--------------||
 |                                                                 ||
E|----------------|----------------|----------------|--------------||
B|----91086--91086|------9108691086|------91086--910|86--------6-68||
G|---7------------|75--57----------|75--57----------|----75--57-7--||
D|----------------|--57------------|--57------------|------57------||
A|----------------|----------------|----------------|--------------||
E|----------------|----------------|----------------|--------------||
 |                                                                 ||
E|----------------|----------------|----------------|--------------||
B|----------------|----------------|----------------|--------------||
G|------02----02--|--------02----02|----------02----|02----------|0||
D|------03----03--|--------03----03|----------03----|03----------0-||
A|0---01-3--01-3--|010---01-3--01-3|--010---01-3--01|-3--010---01--||
E|-313------------|---313----------|-----313--------|-------313----||


  12/8 time
E|------------------------|------------------------|
B|------3-----------------|------------------------|
G|------0-----------------|------------------------|
D|------0-----------------|------------------------|
A|------------------------|------------------------|
E|------------------------|------------------------|
 |                                                 |
E|------------3-----------|---44-------------6-8-10|
B|------3-----3-----------|-----6----6-6-----------|
G|------0-----0-----------|--5---------7-----7-8-10|
D|------0-----0--------0-0|6-----6-6---8-----------|
A|--------------------5-5-|------------------------|
E|------------------3-----|------------------------|

E|------------------------|------------------------|
B|------------------------|------------------------|
G|------------------------|------------------------|
D|------------------------|------------------------|
A|------------------------|------------------------|
E|------------------------|------------------------|
 |                                                 |
E|10--8108----------------|------------------------|
B|-----------811---11-1111|9--119-8----80---8----0-|
G|10--8108---812---12-1212|10-12108----80--8---8---|
D|------------------------|------------------------|
A|------------------------|------------------------|
E|------------------------|------------------------|
      \-3-/                   \-3-/

E|------------------------|------------------------|
B|------------------------|----1-------------------|
G|----------------------3-|1---1-----------------10|
D|--------------------3---|3---3---------------10--|
A|3---3-------------35----|3---3-----------1012----|
E|1---1-------------------|1---1-------------------|
 |                                                 |
E|------------------------|------------------------|
B|-------------1113111311-|------------------------|
G|121081010--12-----------|1012--------101210------|
D|------------------------|------------------------|
A|------------------------|------------------------|
E|------------------------|------------------------|
    \-3-/        \-3/\-3/
E|------------------------|------------------------|
B|------------------------|------------------------|
G|----------------------10|----------------------10|
D|10--10--------------10--|10--10--------------10--|
A|10--10----------1012----|10--10----------1012----|
E|8---8-------------------|8---8-------------------|
 |                                                 |
E|------------------------|------------15-1311311--|
B|-------------88----11-13|----------------------13|
G|8108--8-----------------|------------------------|
D|----10-101010--1012-----|------------------------|
A|------------------------|------------------------|
E|------------------------|------------------------|

E|------------------------|------------------------|
B|------------------------|----1-------------------|
G|------------------------|1---1-------7---7-------|
D|--------------------5---|3---3-------8---8-------|
A|3---5-------5-----57--7-|3---3-------8---8-------|
E|1---3-------3-----------|------------6---6-------|
 |                                                 |
E|1098--8-----------------|------------121516131816|
B|----11-1108--8------1189|89--80----13------------|
G|-----------10---1012----|--10----13--------------|
D|--------------12--------|------15----------------|
A|------------------------|------------------------|
E|------------------------|------------------------|

E|------------------------|------------------------|
B|------------------------|------------------------|
G|8---8-----------------10|8---8-------------------|
D|10--10--------------10--|10--10------------------|
A|10--10----------1012----|10--10------------------|
E|------------------------|------------------------|
 |                                                 |
E|1515-----------1618-1616|16151515----------------|
B|--------------0---------|--------1613--1311------|
G|------------------------|------------15----121012|
D|------------------------|------------------------|
A|------------------------|------------------------|
E|------------------------|------------------------|

E|------------------------|------------------------|
B|----8-------------------|----8-------------------|
G|8--58-------------------|8---8-----------------10|
D|------------------------|--------------------10--|
A|10-710------------------|10--10----------1012----|
E|------------------------|------------------------|
 |                                                 |
E|------------------------|------------------------|
B|------------------------|------------------------|
G|------------------------|------------------------|
D|------------------------|------------------------|
A|------------------------|------------------------|
E|------------------------|------------------------|
               How come twenty-four hours.....

E|------------------------|-------4----------------|
B|64-------------6864-----|-----35-----------------|
G|-------------------55---|------------------5---3-|
D|------------------------|-----------------------5|
A|------------------------|------------------------|
E|------------------------|------------------------|
 |                                                 |
E|10-81088----------------|--------8---------------|
B|------------11119---89-8|--8------118-8----------|
G|10-81088----121210--8108|8-------------------10--|
D|------------------------|--10--------------------|
A|------------------------|------------------------|
E|------------------------|------------------------|

E|------------------------|------------------------|
B|------------------------|------------------------|
G|------------------------|--------------3-5-------|
D|5-----------------------|------------------3-5-1-|
A|------------------------|------------------------|
E|------------------------|------------------------|
 |                                                 |
E|------------------------|------------------------|
B|------------------------|------------------------|
G|3---5-------------------|3---5---------3-5-------|
D|3---5-------------------|3---5-------------3-5-1-|
A|1---3-------------------|1---3-------------------|
E|------------------------|------------------------|


E|------------------------|------------------------|
B|------------------------|------------------------|
G|------------------------|--------------3-5-------|
D|------------------------|------------------3-5-1-|
A|------------------------|------------------------|
E|------------------------|------------------------|
 |                                                 |
E|------------------------|------------------------|
B|------------------------|------------------------|
G|3---5-------------------|3---5---------3-5-------|
D|3---5-------------------|3---5-------------3-5-1-|
A|1---3-------------------|1---3-------------------|
E|------------------------|------------------------|

E|------------------------|------------------------|
B|------------------------|------------------------|
G|------------------------|--------------3-5-------|
D|------------------------|------------------3-5-1-|
A|------------------------|------------------------|
E|------------------------|------------------------|
 |                                                 |
E|------------------------|------------------------|
B|------------------------|------------------------|
G|------------------------|--------------3-5-------|
D|8---10------------------|8---10------------3-5-1-|
A|6---8-------------------|6---8-------------------|
E|------------------------|------------------------|

E|------------------------|------------------------|
B|------------------------|------------------------|
G|------------------------|--------------3-5-------|
D|------------------------|------------------3-5-1-|
A|------------------------|------------------------|
E|------------------------|------------------------|
 |                                                 |
E|-----------------3------|------------------------|
B|-----------------3--43--|------------------------|
G|3---5------------5----5-|3---5---------3-5-------|
D|3---5-------------------|3---5-------------3-5-1-|
A|1---3-------------------|1---3-------------------|
E|------------------------|------------------------|
                     \3/

E|------------------------|------------------------|
B|---------------11----89-|899---------11----------|
G|-------------12---------|------------------------|
D|------------------------|------------------------|
A|------------------------|------------------------|
E|------------------------|------------------------|
 |                                                 |
E|----------3---3-3----3--|--4---4-----6-----6-8-10|
B|--------33-3-3-3-3--3-3-|---6---666666-----------|
G|-------0----0-----00---0|-5------55557-----7-8-10|
D|------------------------|6---66------8-----------|
A|3-----------------------|------------------------|
E|1---3-------------------|------------------------|

E|------------------------|------------------------||
B|------119988------------|------------------------||
G|----------------1210108-|------87755------------8||
D|------------------------|------------------------||
A|------------------------|------------------------||
E|------------------------|------------------------||
 |                                                 ||
E|10---8108---------------|-------------8----------||
B|-----------------8------|---8----------118-------||
G|10---8108--111210810----|---8--------------------||
D|---------------------810|810-1010----------------||
A|------------------------|------------------------||
E|------------------------|------------------------||


E|------------------------|---------------------------------------|
B|------------------------|--11-9----59119119898--8---------------|
G|------------------------|---------------------10-10-8--8--10--8-|
D|------------------------|----------------------------10-10--10--|
A|------------------------|---------------------------------------|
E|------------------------|---------------------------------------|
 |                                                 |
E|111111111111131111111111|------------------------|
B|131313131313151313131313|9-----------------------|
G|------------------------|10----------------------|
D|------------------------|------------------------|
A|------------------------|------------------------|
E|------------------------|------------------------|

E|------------------------|-------------161531513--13-------------------------------|
B|------------------------|--1620131613----------16--1613--13--131613131613--13-----|
G|------------------------|------------------------------15--15------15----15--15-13|
D|------------------------|---------------------------------------------------------|
A|------------------------|---------------------------------------------------------|
E|------------------------|---------------------------------------------------------|
 |                                                 |
E|111111111311111111111111|------------------------|
B|131313131513131313131313|8---------------------3-|
G|------------------------|8---------------------3-|
D|------------------------|10--------------------3-|
A|------------------------|10------------------35--|
E|------------------------|------------------------|

  Guitar Solo
E|--------------------1318|----15161513------------|
B|----------------1316----|------------1513--1313--|
G|121312----121315--------|----------------15----15|
D|------1415--------------|------------------------|
A|------------------------|------------------------|
E|------------------------|------------------------|
 |                                                 |
E|------------------------|------------------------|
B|1---1-------------------|1---1-------------------|
G|1---1-----------------3-|1---1-------------10----|
D|1---1---------------3---|1---1-------------------|
A|------------------35----|--------------1012--1210|
E|------------------------|------------------------|


E|------------------------|----11------11----11----|
B|----------------13111311|1313--131311--1313------|
G|-------151812108--------|------------------------|
D|171513------------------|------------------------|
A|------------------------|------------------------|
E|------------------------|------------------------|
 |                                                 |
E|------------------------|------------------------|
B|8---8-----------------10|8---8-----------------10|
G|8---8-------------------|8---8-----------------10|
D|--------------------10--|10--10--------------10--|
A|10--10----------1012----|----------------1012----|
E|------------------------|------------------------|


E|-------8----------------|------------------------|
B|-----11-11--------------|9--11911989989--8----118|
G|---12-----10---12-----13|--------------10-10-----|
D|------------------------|------------------------|
 |------------------------|------------------------|
E|------------------------|------------------------|
 |                                                 |
E|------------------------|----4--4---46-----6-8-10|
B|----------------------3-|6--6-5--6-6-------------|
G|------------------------|--5---5--5-57-----7-8-10|
D|--------------------0---|------------------------|
A|3---5--------------5----|------------------------|
E|1---3-------------3-----|------------------------|


E|------------------------|101315----130---8-------|
B|--------------------1011|--------11-----8-118----|
G|1210810--------71012----|------12-----10------87-|
D|--------------8---------|------------------------|
A|------------10----------|------------------------|
E|------------------------|------------------------|
 |                                                 |
E|10--81088---------------|--------------------------|
B|---------------------6--|------8-------------------|
G|10--8108--------8---7---|----8---------------10108-|
D|--------------8---------|--10------10----1012------|
A|------------------------|------------------------10|
E|------------------------|--------------------------|


E|------------------------|--------------------------------|
B|------------------------|--------------------------------|
G|------------------71012-|1012---8108108787-7----------8--|
D|-7-8-------------8------|-----------------8-1010---810-10|
A|---------------10-------|------------------------10------|
E|------------------------|--------------------------------|
 |                                                 |
E|------------------------|----8-------------------|
B|----8-----------------10|8---8-----8-----------10|
G|8---8-----------------10|8---8-----8---------10--|
D|7---10--------------10--|10--10----10------------|
A|----10----------1012----|----------------1012----|
E|------------------------|------------------------|


E|-----------------------------------------8--8--8--11|
B|---------------------------------------11-11-11-11--|
G|----8------10----8----10-8--8--8--8--12-------------|
D|8910-108910--8910-8910--8-10-10-10-10---------------|
A|----------------------------------------------------|
E|----------------------------------------------------|

E|108--8----8-----------------------------------------|
B|---11-118----81011108---8---8---8---6---------------|
G|-----------10--------108-108-108-108-85-5-58--58585-|
D|---------------------------------------6-6--8-------|
A|----------------------------------------------------|
E|----------------------------------------------------|

 |                                                 |
E|------------------------|------------------------|
B|----------------------10|8---8-----------------3-|
G|8---8-----8-------------|8---8-------8---------3-|
D|--------------------10--|--------------------3---|
A|10--10----10----1012----|10--10------10----35----|
E|------------------------|------------------------|


E|------------------------|-----------------13-----|
B|-----------------6-8--8-|68--66------------------|
G|---5----5-810-----------|-------------------10---|
D|666---56----------------|------------------------|
A|------------------------|------------------------|
E|------------------------|------------------------|
 |                                                 |
E|1---1-------------------|------------------------|
B|1---1-----------------3-|6---6-----------------10|
G|1---1---------------3---|5---5-------------------|
D|3-----------------------|6---6---------------10--|
A|3-----------------35----|----------------1012----|
E|------------------------|------------------------|


E|--11----10--8-----------|---------------63-------|
B|---------------------343|-3---3-----3-----464----|
G|-----888--7--5-----35---|5---3-35----355-----3555|
D|----------------005-----|---5-----45-------------|
A|------------------------|------------------------|
E|------------------------|------------------------|
 |                                                 |
E|------------------------|8---8-------------------|
B|8---8-----------------10|8---8-------------------|
G|8---8---------------10--|8---8-----------------10|
D|10--10------------------|--------------------10--|
A|----------------1012----|10--10----------1012----|
E|------------------------|------------------------|


E|------13151310------8---|8------86-----86------86|
B|--------------11--11-899|-9----9------9-------8--|
G|----------------12------|--1010-----10-----810---|
D|------------------------|------------------------|
A|------------------------|------------------------|
E|------------------------|------------------------|
 |                                                 |
E|---------------------3--|---4-----4--6-----6-8-10|
B|----------------3-3-3-3-|--6-6-6-6-6-6-----------|
G|---------------0-0-0---0|-5---5-5----7-----7-8-10|
D|3---5---------5---------|6-----6----68-----------|
A|3---5-------------------|------------------------|
E|1---3-------------------|------------------------|


E|-6-6--------------151820|--18151815--------------||
B|6-6-88------151618------|----------1816--16--1615||
G|----------17------------|-0------------17--17----||
D|------------------------|------------------------||
A|------------------------|------------------------||
E|------------------------|------------------------||
 |                                                 ||
E|10--8108----------8-----|8-----------8-----------||
B|------------------------|--8-----------8---------||
G|10--8108--------------8-|------------------------||
D|----------------10--10--|----10------------------||
A|------------------------|------------------------||
E|------------------------|------------------------||


E|------------------------|------------------------|
B|------------------------|------------------------|
G|15--17------------------|--------------3-5-------|
D|------------------------|------------------3-5-1-|
A|------------------------|------------------------|
E|------------------------|------------------------|
 |                                                 |
E|------------------------|------------------------|
B|------------------------|------------------------|
G|3---5----------55---5---|3---5---------3-5-------|
D|3---5-------------------|3---5-------------3-5-1-|
A|1---3-------------------|1---3-------------------|
E|------------------------|------------------------|
  To sing a song for you.....

E|------------------------|------------------------|
B|------------------------|------------------------|
G|------------------------|--------------3-5-------|
D|------------------------|------------------3-5-1-|
A|------------------------|------------------------|
E|------------------------|------------------------|
 |                                                 |
E|------------------------|------------------------|
B|------------------------|------------------------|
G|3---5-------------------|3---5---------3-5-------|
D|3---5-------------------|3---5-------------3-5-1-|
A|1---3-------------------|1---3-------------------|
E|------------------------|------------------------|


E|------------------------|------------------------|
B|------------------------|------------------------|
G|------------------------|--------------3-5-------|
D|------------------------|------------------3-5-1-|
A|------------------------|------------------------|
E|------------------------|------------------------|
 |                                                 |
E|------------------------|------------------------|
B|------------------------|------------------------|
G|------------------------|--------------3-5-------|
D|8---10------------------|8---10------------3-5-1-|
A|6---8-------------------|6---8-------------------|
E|------------------------|------------------------|


E|------------------------|------------------------|
B|------------------------|------------------------|
G|------------------------|--------------3-5-------|
D|------------------------|------------------3-5-1-|
A|------------------------|------------------------|
E|------------------------|------------------------|
 |                                                 |
E|------------------------|------3-----------------|
B|------------------------|------3-43----3---------|
G|3---5-------------------|3---5-----5---3-5-------|
D|3---5-------------------|3---5-------------3-5-1-|
A|1---3-------------------|1---3-------------------|
E|------------------------|------------------------|


E|------------------3-----|8--4---------------4-434|
B|----------------3-------|9--5--------------8-----|
G|------------0-----------|------------------------|
D|------------------------|------------------------|
A|------------------------|------------------------|
E|------------------------|------------------------|
 |                                                 |
E|----------3----3--33--3-|---4--4--4-----6--6-8-10|
B|---------3----3-3---3--3|--6-6--6--6---6-66------|
G|--------0--00----0------|-5---5--5--57---777-8-10|
D|3---5-5-----------------|6-----------------------|
A|3---5-------------------|------------------------|
E|1---3-------------------|------------------------|


E|3433--------------------|------------------------|
B|----------8-------------|--98------119-9---------|
G|-------810-8------------|-108--1012121010--8108--|
D|-------------1010-------|----------------------10|
A|------------------------|------------------------|
E|------------------------|------------------------|
 |                                                 |
E|10-81088----8--8--------|------------------------|
B|-------------8----------|------------119-89-89-8-|
G|10-81088-----------81010|108-8-------12108108108-|
D|---------8--10--------10|108-----810-------------|
A|----------10------101212|1210-810----------------|
E|-----------------8------|------------------------|


E|------------------------|----------------1113--11|
B|------------------------|--------------13--------|
G|------------------------|------------12----------|
D|------------------------|------------------------|
A|------------------------|------------------------|
E|------------------------|------------------------|
 |                                                 |
E|------------------------|------------------------|
B|----------------------10 ------------------------|
G|8---8-----------------10|8---8---------3-5-------|
D|--------------------10--|------------------3-5-1-|
A|10--10----------1012----|10--10------------------|
E|------------------------|------------------------|


E|-------------------11-11|------------------------|
B|1311-------------13-----|1311----------------8---|
G|----1088-------13-------|----12108------81011-108|
D|------------------------|---------10--10---------|
A|------------------------|------------------------|
E|------------------------|------------------------|
 |                                                 |
E|------------------------|------------------------|
B|----------------------10|----8-------------------|
G|8---8-------------------|8---8---------3-5-------|
D|--------------------10--|-----------------3-5-1--|
A|10--10----------1012----|10--10------------------|
E|------------------------|------------------------|


E|------------------------|------------------------|
B|-----------------9------|------------------------|
G|10--810--------10-10810-|--1210------------------|
D|------------------------|------------------------|
A|------------------------|------------------------|
E|------------------------|------------------------|
 |                                                 |
E|1---1-------------------|1---1-------------------|
B|1---1-----------------3-|1---1-------------------|
G|1---1-----------------3-|1---1---------3-5-------|
D|1---1---------------3---|3---3-------------3-5-1-|
A|3---3-------------35----|3---3-------------------|
E|------------------------|------------------------|


E|------------------------|------------------------|
B|------------------------|------------------------|
G|----1113--15-1081088----|------------------------|
D|------------------------|------------------------|
A|------------------------|------------------------|
E|------------------------|------------------------|
 |                                                 |
E|------------------------|----8-------------------|
B|----------------------10|8---8-------------------|
G|8---8-------------------|8---8---------3-5-------|
D|--------------------10--|10--10-----------3-5-1--|
A|10--10----------1012----|10--10------------------|
E|------------------------|------------------------|


E|------------------------|------------------------|
B|------------------------|------------------------|
G|------------------------|------------------------|
D|------------------------|------------------------|
A|------------------------|------------------------|
E|------------------------|------------------------|
 |                                                 |
E|----------3-----3-----3-|--44--4--4--6-----6-8-10|
B|---------3-3---3-3-3-3-3|-------6----6-----------|
G|--------0-----0---0-0---|-5--6---5-5-7-----7-8-10|
D|------------------------|6----5--6-6-8-----------|
A|3---5-------------------|------------------------|
E|1---3-3-----3-----------|------------------------|


E|------------------------|------------------------|
B|------------------------|------------------------|
G|------------------------|------------------------|
D|------------------------|------------------------|
A|------------------------|------------------------|
E|------------------------|------------------------|
 |                                                 |
E|10--81088-----------8---|----8-----8-------------|
B|------------------8---8-|-----118---118----------|
G|10--81088-------8-------|--------------12108--8--|
D|--------------10--------|-------------------10-8-|
A|------------------------|------------------------|
E|------------------------|------------------------|


E|------------------------|------------------------|
B|------------------------|------------------------|
G|------------------------|------------------------|
D|------------------------|------------------------|
A|------------------------|------------------------|
E|------------------------|------------------------|
 |                                                 |
E|----------33-----3--3---|---4--4-----6-----6-8-10|
B|---------3----3---3--3--|--6-6--6---66-----------|
G|--------0---0---0-----0-|-5---5--5-5-7-----7-8-10|
D|------------------------|------------5-----------|
A|3---5-------------------|------------------------|
E|1---3-------------------|------------------------|


E|------------------------|------------------------|
B|------------------------|------------------------|
G|------------------------|------------------------|
D|------------------------|------------------------|
A|------------------------|------------------------|
E|------------------------|------------------------|
 |                                                 |
E|1081088---8108108-------|------8------8----------|
B|-----------------9119-8-|9-88---1188---118-------|
G|1081088---8108108---108-|1088-------------1210--8|
D|------------------------|---------------------10-|
A|------------------------|------------------------|
E|------------------------|------------------------|


E|-----------------10-----|------------------------|
B|8-----81011108--8--88--8|88--8--88--8------------|
G|--------------10-----10-|--10-10--10-10-----7108-|
D|------------------------|------------------------|
A|------------------------|------------------------|
E|------------------------|------------------------|
 |                                                 |
E|--------3---53-6353---3-|--4---8-----6-6--66-8-10|
B|---------3-3--0----3-3-3|---6-----6--6--6-6------|
G|-------0--0---------0---|-5--50--5-577---7-7-8-10|
D|------0-----------------|6---------688-----------|
A|3---5-------------------|------------------------|
E|1---3-------------------|------------------------|


E|----------11--------1513|------------------------|
B|--------13--13-1512-----|-13--8----------8-------|
G|------------------------|-------8--8--8--8-------|
D|10----------------------|-------10-10-10-10------|
A|------------------------|------------------------|
E|------------------------|------------------------|
 |                                                 |
E|10--8-------------------|----------10101010101010|
B|----------8-1019--------|10----10--8-8-8-8-8-8-8-|
G|10--8-8---8-1010--------|10----10--8-8-8-8-8-8-8-|
D|------10--101212--------|12----12----------------|
A|------10--101212--------|12----12----------------|
E|------8---------------8-|----8-------------------|


E|------------------------||
B|(8)---------------------||
G|(8)---------------------||
D|(10)--------------------||
A|------------------------||
E|------------------------||
 |                        ||
E|10101010----------------||
B|8-8-8-8-----------------||
G|8-8-8-8-----------------||
D|------------------------||
A|------------------------||
E|--------8---------------||
Tap to rate this tab
# A B C D E F G H I J K L M N O P Q R S T U V W X Y Z