Song name
# A B C D E F G H I J K L M N O P Q R S T U V W X Y Z

Led Zeppelin - Tangerine tab

Tangerine - Led Zeppelin

Tuning: Standard (slightly flat)
Time Signature: 4/4


--------------3--3--2--2--2-----2-------------3--3--2--2--(2)--|
--1--3--1--0--0--0--3--3--3--3--3--1--3--1--0-0--0--3--3--(3)--|
--2--2--2--2--0--0--2--2--2-----2--2--2--2--2-0--0--2--2--(2)--|
--2--2--2--2--0--0-----------------2--2--2--2-0--0-------------|
--0-----------2--2-----------------0----------2--2-------------|
--------------3--3----------------------------3--3-------------|



--------------------------------------------------3--3--2--2---|
--1--1-----1---------------------------1----1--1--0--0--3--3---|
--0--0-----0-----------0-----------0---2----2--2--0--0--2--2---|
--2--2--2--------2--2--------0--0------2----2--2--0--0---------|
--3--3--3-----3------------2-----------0----0--0--2--2---------|
--------------------------------------------------3--3---------|


---2--2--2----3--2---0-----2-----|
---3--3--3----3--3---3-----3-----|
---2--2--2----2--2---2-----2-----|
---------------------------------|
---------------------------------|
---------------------------------|


Repeat then strum Am,Am,Am,...D,D,D,...G,G ("tangerine...")


Solo:

e------------10-12-10~---------------------10---------------------10---|
B-10~~--13~--------------(12)pb13rb12b13~------13-12~---12-12-13-------|
G----------------------------------------------------------------------|
D----------------------------------------------------------------------|
A----------------------------------------------------------------------|
E----------------------------------------------------------------------|


e------------------------------10~~-----17---15~---17b19---17b19--|
B--(10)pb12rb10b12~--12-12-13-------------------------------------|
G-----------------------------------------------------------------|
D-----------------------------------------------------------------|
A-----------------------------------------------------------------|
E-----------------------------------------------------------------|


e-17b19rb17~--17--19--20~--20~--20b22~~---|
B-----------------------------------------|
G-----------------------------------------|
D-----------------------------------------|
A-----------------------------------------|
E-----------------------------------------|

  When mandolin enters at 0:34
E|----------------|----------------|----------------|----------------|
A|--------0-2-3-5-|5--0-0----------|--------0-2-3-5-|5--0-0----------|
D|--------2-------|0--0-0----------|--------2-------|0--0-0----------|
G|--------5-------|4--2-2----------|--------5-------|4--2-2----------|
          Measuring a summer's day          I only find it slips away to grey
          Thinking how it used to be        Does she still remember times like these
Tap to rate this tab
# A B C D E F G H I J K L M N O P Q R S T U V W X Y Z