Song name
# A B C D E F G H I J K L M N O P Q R S T U V W X Y Z

Led Zeppelin - Dyer Maker tab

-------------------------------------------------------------------------------
                             Dyer Maker - Led Zeppelin
-------------------------------------------------------------------------------
Tabbed by: Abendroth
E-mail: christopherturner_ct@yahoo.com

Tuning: Standard - EADGBe (low to high)

I hope everyone enjoys my first tab! All by ear, too. Only been playing for a bit over a 
year, but I'm sure it's very accurate (Nearly %100). I did my best!

|Main Riff|

(All notes, except for the slide notes, are muted very lightly.)

         Cmaj             Am              Fmaj           Gmaj
e|----8------10/12--x-x---5------7/8-x-x---1-----3/5-x-x---3------5/7-x-x|
B|------8-----------x-x-----5--------x-x-----1-------x-x-----3--------x-x|
G|--------9--10/12--x-x-------5------x-x-------2-3/5-x-x-------4--5/7-x-x|
D|-10---------------x-x-7------------x-x-3-----------x-x-5------------x-x|
A|-----------------------------------------------------------------------|
E|-----------------------------------------------------------------------|

|Riff 2|
    Am
e|-|5|-------------------------------------------|
B|-|5|-------------------5----------5------------|
G|-|5|-------------------5----------5------------|
D|-|7|-----------------5----------5--------5h7p5-|
A|-|7|-------------5h7--------5h7--------7-------|
E|-|5|-------------------------------------------|

|Play the main riff x3|

|Riff 3|

    Am
e|-|5|----------------------------------------------------------------------|
B|-|5|----------------------------------------------------------------------|
G|-|5|----------------------------------------------------------------------|
D|-|7|----------------------------------------------------------------------|
A|-|7|-7-7-x-7-x-x-7-7-x-7-0-5-5-x-5-x-x-5-5-x-5-5-5-5/7-7-x-7-x-x-7-7-x-7-0|
E|-|5|-5-5-x-5-x-x-5-5-x-5-0-3-3-x-3-x-x-3-3-x-3-3-3-3/5-5-x-5-x-x-5-5-x-5-0|



|Riff 4|

    Fmaj                  Gmaj
e|------------------------------------------------|
B|---1-----1-----1-----1/3-----3-----6-----5-----3|
G|-----2-----2-----2-----2/4-----4-----4-----4----|
D|-3-----3-----3-----3-----3/5-----5-----5-----5--|
A|------------------------------------------------|
E|------------------------------------------------|

|Solo|

Look at, "version 1" for the solo.


|Main riff ending|

(This looks exactly like the main riff played throughout the song, but if you look 
carefully, there is one extra note played in every chord transition.)

         Cmaj             Am              Fmaj
e|----8-----8-10/12-x-x---5-----5-7/8-x-x---1-----1-3/5-x-x|
B|------8-----------x-x-----5---------x-x-----1---------x-x|
G|--------9---10/12-x-x-------5-------x-x-------2---3/5-x-x|
D|-10---------------x-x-7-------------x-x-3-------------x-x|
A|---------------------------------------------------------|
E|---------------------------------------------------------|

    Gmaj
e|---3-----3-5/7-x-x|
B|-----3---------x-x|
G|-------4---5/7-x-x|
D|-5-------------x-x|
A|------------------|
E|------------------|


Thank you, and have fun playing this awesome song guys!

************************************

| /   slide up
| \   slide down
| h   hammer-on
| p   pull-off
| ~   vibrato
| +   harmonic
| x   Mute note
| b   Bend
| pb  Pre-bend
| br  Bend release
| pbr Pre-bend release
| brb Bend release bend

************************************
Tap to rate this tab
 
# A B C D E F G H I J K L M N O P Q R S T U V W X Y Z