Song name
# A B C D E F G H I J K L M N O P Q R S T U V W X Y Z

Led Zeppelin - Trampled Underfoot tab

Trampled under Foot         1975
Led Zeppelin (Jimmy Page)
Album: Physical Graffiti

Standard Tuning

---------------------------------------|e
---3---3-----3----3----3---------------|B
---0---0-----2h3--0----0---------------|G
-----3--------------3------------------|D
---------------------------------------|A
-3-------------------------------------|E

------6---6------8----8-----------------|e
----------------------------------------|B
--5/7---7----7/9----9-------------------|G
----------------------------------------|D
----------------------------------------|A
----------------------------------------|E

-----------------------------------------------|e
-2-3-------------------------------------------|B
-2-3---3-2-------------------------------------|G
-----------5-3-5-------------------------------|D
-----------------------------------------------|A
-----------------------------------------------|E


Long Slide Part
------6---6---------8----8----------11----11---------13----13----------|e
-----------------------------------------------------------------------|B
--5/7---7-------7/9----9-------10/12----12------12/14----14------------|G
-----------------------------------------------------------------------|D
-----------------------------------------------------------------------|A
-----------------------------------------------------------------------|E

Listen to the song for the rythm. It's not that hard if you practice a little bit.

Enjoy :D
Tap to rate this tab
# A B C D E F G H I J K L M N O P Q R S T U V W X Y Z