Song name
# A B C D E F G H I J K L M N O P Q R S T U V W X Y Z

Led Zeppelin - No Quarter tab

No Quarter
Houses of the Holy
Led Zeppelin

Tuning:  DbAbDbGbBbeb (or Drop D with everything down a half-step)

Verse
(This is supposed to be on keyboard, but I have tabbed it out for guitar,
also, the pull off is optional, but it is like a grace note, I think it
sounds better with it.  In later parts where their is no guitar, use these
as a fill in.  I only have the times in the beginning part to get the feel
for each little riff/lick.)
   0:00                          0:05
eb-----------------------------|-------------------------------------|
Bb-----------------------------|-------------------------------------|
Gb-----------------------------|-------------------------------------|
Db----0--3-2-0-2---------------|----0-3-2-0-2-----0-----0------------|
Ab---------------3-(3)p0-----0-|--------------3--(3)--0--------------|
Db-0--------------------5--7---|-0-----------------------------------|

   0:08                          0:12
eb-----------------------------|-------------------------------------|
Bb-----------------------------|-------------------------------------|
Gb-----------------------------|-------------------------------------|
Db----0--3-2-0-2---------------|----0-3-2-0-2------0-----------------|
Ab---------------3-(3)p0-----0-|--------------3--5-------------------|
Db-0--------------------5--7---|-0-----------------------------------|

   0:16
eb------------------0-1---0------------------------------------------|
Bb--------1-1--3-3------3----1---------------------------------------|
Gb-0-2-2------------------------0-2----------------------------------|
Db-------------------------------------------------------------------|
Ab-------------------------------------------------------------------|
Db-------------------------------------------------------------------|

   0:24
eb-------------------------------------------------------------------|
Bb-1--1-1-3----------------------------------------------------------|
Gb-----------0--2-2--------------------------------------------------|
Db-----------------------0-3-2--0------------------------------------|
Ab-------------------------------------------------------------------|
Db---------------------0----------0----------------------------------|

   0:31
eb-----------------------0-1---0-------------------------------------|
Bb-------------1-1--3-3------3----1----------------------------------|
Gb------0-2-2------------------------0-2-----------------------------|
Db---0---------------------------------------------------------------|
Ab-------------------------------------------------------------------|
Db-0-----------------------------------------------------------------|

   0:38
eb-------------------------------------------------------------------|
Bb-----1--1-1-3------------------------------------------------------|
Gb---------------0--2-2----------------------------------------------|
Db---0-------------------0-3-2--0------------------------------------|
Ab-------------------------------------------------------------------|
Db-0--------------------0----------0---------------------------------|

Pre-chorus
   0:48            0:55
eb--------------------------------------------------------------------|
Bb-5---------------10-------------------------------------------------|
Gb-7---------------12-------------------------------------------------|
Db-8---------------13-------------------------------------------------|
Ab-8---------------13-------------------------------------------------|
Db--------------------------------------------------------------------|

Chorus (Use a fuzz pedal):
   1:03
eb--------------------------------------------------------------------|
Bb--------------------------------------------------------------------|
Gb--------------------------------------------------------------------|
Db-----7-7-7------7-7-7------7------------------------3---------------|
Ab-3/5-5-5-5--3/5-5-5-5--3/5-5-5-----5-5-5-3------3-----5-------------|
Db-------------------------------3/5-5-5-5----3-5---5-----------------|

   1:10
eb--------------------------------------------------------------------|
Bb--------------------------------------------------------------------|
Gb--------------------------------------------------------------------|
Db-----7-7-7------7-7-7------7------------------------3---------------|
Ab-3/5-5-5-5--3/5-5-5-5--3/5-5-5-----5-5-5-3------3-----5-------------|
Db-------------------------------3/5-5-5-5----3-5---5-----------------|

   1:16
eb--------------------------------------------------------------------|
Bb--------------------------------------------------------------------|
Gb--------------------------------------------------------------------|
Db-----7-7-7------7-7-7------7------------------------3---------------|
Ab-3/5-5-5-5--3/5-5-5-5--3/5-5-5-----5-5-5-3------3-----5-------------|
Db-------------------------------3/5-5-5-5----3-5---5-----------------|

   1:24
eb--------------------------------------------------------------------|
Bb--------------------------------------------------------------------|
Gb--------------------------------------------------------------------|
Db-----7-7-7------7-7-7------7------------------------3---------------|
Ab-3/5-5-5-5--3/5-5-5-5--3/5-5-5-----5-5-5-3------3-----5----3^5------|
Db-------------------------------3/5-5-5-5----3-5---5-----------------|

Verse

Pre-chorus
   2:17            2:24
eb--------------------------------------------------------------------|
Bb-5---------------10-------------------------------------------------|
Gb-7---------------12-------------------------------------------------|
Db-8---------------13-------------------------------------------------|
Ab-8---------------13-------------------------------------------------|
Db--------------------------------------------------------------------|

Chorus
   2:31
eb--------------------------------------------------------------------|
Bb--------------------------------------------------------------------|
Gb--------------------------------------------------------------------|
Db-----7-7-7------7-7-7------7------------------------3---------------|
Ab-3/5-5-5-5--3/5-5-5-5--3/5-5-5-----5-5-5-3------3-----5----3^5------|
Db-------------------------------3/5-5-5-5----3-5---5-----------------|

   2:38
eb--------------------------------------------------------------------|
Bb--------------------------------------------------------------------|
Gb--------------------------------------------------------------------|
Db-----7-7-7------7-7-7------7------------------------3---------------|
Ab-3/5-5-5-5--3/5-5-5-5--3/5-5-5-----5-5-5-3------3-----5----3^5------|
Db-------------------------------3/5-5-5-5----3-5---5-----------------|

   2:45
eb--------------------------------------------------------------------|
Bb--------------------------------------------------------------------|
Gb--------------------------------------------------------------------|
Db-----7-7-7------7-7-7------7------------------------3---------------|
Ab-3/5-5-5-5--3/5-5-5-5--3/5-5-5-----5-5-5-3------3-----5----3^5------|
Db-------------------------------3/5-5-5-5----3-5---5-----------------|

   2:52
eb--------------------------------------------------------------------|
Bb--------------------------------------------------------------------|
Gb--------------------------------------------------------------------|
Db-----7-7-7------7-7-7------7------------------------3---------------|
Ab-3/5-5-5-5--3/5-5-5-5--3/5-5-5-----5-5-5-3------3-----5----3^5------|
Db-------------------------------3/5-5-5-5----3-5---5-----------------|

Piano Solo 3:12

The solo has two parts to it, one clean, and one with the fuzz pedal.
Clean guitar solo:
   3:57
eb---------------------------------------------------------------------|
Bb---------------------------------------------------------------------|
Gb-----------------------------5-7/9-7-5-7/9-7\5-7--------------9-12p9-|
Db-10p7----10p7---7p5--------7-----------------------10-9----10--------|
Ab------10------8-----8--5-8------------------------------12-----------|
Db---------------------------------------------------------------------|

eb--------------------------------------------------------------------|
Bb--------------------------------------------------------------------|
Gb--12p9----9-12p9-12p9----9------------------------------------------|
Db-------10-------------10---10-9----9-10---9-------------------------|
Ab--------------------------------12-----------12-12-12---------------|
Db--------------------------------------------------------------------|

eb------------------------------------------------15p12----15p12------|
Bb-----------------------------------------12-13--------13------------|
Gb------------10----------10-12-12---12h14----------------------------|
Db----9-10-12----12p10-12---------------------------------------------|
Ab-12-----------------------------------------------------------------|
Db--------------------------------------------------------------------|

eb---------------------------------------------------------------------|
Bb-13-17p13--12-13p12----12----------------------10--------------------|
Gb--------------------14----14-12-10----10-12-13---------13-12-10-9--9-|
Db------------------------------------12-------------------------------|
Ab---------------------------------------------------------------------|
Db---------------------------------------------------------------------|

eb--------------------------------------------------------------------|
Bb--------------------------------------------------------------------|
Gb-10p9----9-10p9-----------------------------------------------------|
Db------12--------12---12-10---10-12------10--------------------------|
Ab--------------------------------------------------------------------|
Db--------------------------------------------------------------------|

eb--------------------------------------------------------------------|
Bb--------------------------------------------------------------------|
Gb---10-----------------------------------------------5---7---9-----9-|
Db-12----12-10---10-12------10----------------------------------------|
Ab-------------12----------------8-7--5--7-8-7--5-----3---5---7-----7-|
Db--------------------------------------------------------------------|

Eb--------------------------------------------------------------------|
Bb--------------------------------------------------------------------|
Gb-12--14----14\13--14\13---14\13--13/14------------------------------|
Db----------------------------------------10--------------------------|
Ab-10--12----12\11--12\11---12\11--11/12------------------------------|
Db--------------------------------------------------------------------|

eb--------------------------------------------------------------------|
Bb--------------------------------------------------------------------|
Gb-------7/9-7p5-7---------------------------------10-12-10-9---------|
Db-----7------------------------------10-9---------------------12-----|
Ab-7-8-----------------------------------12-12-12---------------------|
Db--------------------------------------------------------------------|

Fuzz pedal solo
   4:23
eb-------------------------------------------------12-12h13p12-12-13--|
Bb-10-12--12^13---13p12-13p12-13p12^13---15^17------------------------|
Gb--------------------------------------------------------------------|
Db--------------------------------------------------------------------|
Ab--------------------------------------------------------------------|
Db--------------------------------------------------------------------|

eb-12h13p12---------------------------------------------------17------|
Bb-----------15-13--12h13p12----12-13-15-17^18^17-15-17-17^18---------|
Gb---------------------------14---------------------------------------|
Db--------------------------------------------------------------------|
Ab--------------------------------------------------------------------|
Db--------------------------------------------------------------------|

eb--------------------------------------------------------------------|
Bb-17^18--17-15-17-15--13^15^13----12-13-12----12-13-12-13------------|
Gb------------------------------------------14-------------14-12--12--|
Db--------------------------------------------------------------------|
Ab--------------------------------------------------------------------|
Db--------------------------------------------------------------------|

eb--------------------------------------------------------------------|
Bb--------------------------------------------------------------------|
Gb--14^16-----12-10-----10-9---9h10p9---------------------------------|
Db------------------12------10---------12-----------------------------|
Ab--------------------------------------------------------------------|
Db--------------------------------------------------------------------|

Verse 4:47

Pre-chorus
   5:21            5:27
eb--------------------------------------------------------------------|
Bb-5---------------10-------------------------------------------------|
Gb-7---------------12-------------------------------------------------|
Db-8---------------13-------------------------------------------------|
Ab-8---------------13-------------------------------------------------|
Db--------------------------------------------------------------------|

Chorus
   5:34
eb--------------------------------------------------------------------|
Bb--------------------------------------------------------------------|
Gb--------------------------------------------------------------------|
Db-----7-7-7------7-7-7------7------------------------3---------------|
Ab-3/5-5-5-5--3/5-5-5-5--3/5-5-5-----5-5-5-3------3-----5----3^5------|
Db-------------------------------3/5-5-5-5----3-5---5-----------------|

   5:41
eb--------------------------------------------------------------------|
Bb--------------------------------------------------------------------|
Gb--------------------------------------------------------------------|
Db-----7-7-7------7-7-7------7------------------------3---------------|
Ab-3/5-5-5-5--3/5-5-5-5--3/5-5-5-----5-5-5-3------3-----5----3^5------|
Db-------------------------------3/5-5-5-5----3-5---5-----------------|

   5:48
eb--------------------------------------------------------------------|
Bb--------------------------------------------------------------------|
Gb--------------------------------------------------------------------|
Db-----7-7-7------7-7-7------7------------------------3---------------|
Ab-3/5-5-5-5--3/5-5-5-5--3/5-5-5-----5-5-5-3------3-----5----3^5------|
Db-------------------------------3/5-5-5-5----3-5---5-----------------|

   5:55
eb--------------------------------------------------------------------|
Bb--------------------------------------------------------------------|
Gb--------------------------------------------------------------------|
Db-----7-7-7------7-7-7------7------------------------3---------------|
Ab-3/5-5-5-5--3/5-5-5-5--3/5-5-5-----5-5-5-3------3-----5----3^5------|
Db-------------------------------3/5-5-5-5----3-5---5-----------------|

   6:01
eb--------------------------------------------------------------------|
Bb--------------------------------------------------------------------|
Gb--------------------------------------------------------------------|
Db-----7-7-7------7-7-7------7------------------------3---------------|
Ab-3/5-5-5-5--3/5-5-5-5--3/5-5-5-----5-5-5-3------3-----5----3^5------|
Db-------------------------------3/5-5-5-5----3-5---5-----------------|

   6:08
eb--------------------------------------------------------------------|
Bb--------------------------------------------------------------------|
Gb--------------------------------------------------------------------|
Db-----7-7-7------7-7-7------7------------------------3---------------|
Ab-3/5-5-5-5--3/5-5-5-5--3/5-5-5-----5-5-5-3------3-----5----3^5------|
Db-------------------------------3/5-5-5-5----3-5---5-----------------|

   6:15
eb--------------------------------------------------------------------|
Bb--------------------------------------------------------------------|
Gb--------------------------------------------------------------------|
Db-----7-7-7------7-7-7------7------------------------3---------------|
Ab-3/5-5-5-5--3/5-5-5-5--3/5-5-5-----5-5-5-3------3-----5----3^5------|
Db-------------------------------3/5-5-5-5----3-5---5-----------------|

   6:21
eb--------------------------------------------------------------------|
Bb--------------------------------------------------------------------|
Gb--------------------------------------------------------------------|
Db-----7-7-7------7-7-7------7------------------------3---------------|
Ab-3/5-5-5-5--3/5-5-5-5--3/5-5-5-----5-5-5-3------3-----5----3^5------|
Db-------------------------------3/5-5-5-5----3-5---5-----------------|

   6:28
eb--------------------------------------------------------------------|
Bb--------------------------------------------------------------------|
Gb--------------------------------------------------------------------|
Db-----7-7-7------7-7-7------7------------------------3---------------|
Ab-3/5-5-5-5--3/5-5-5-5--3/5-5-5-----5-5-5-3------3-----5----3^5------|
Db-------------------------------3/5-5-5-5----3-5---5-----------------|

   6:35
eb--------------------------------------------------------------------|
Bb--------------------------------------------------------------------|
Gb--------------------------------------------------------------------|
Db-----7-7-7------7-7-7------7------------------------3---------------|
Ab-3/5-5-5-5--3/5-5-5-5--3/5-5-5-----5-5-5-3------3-----5----3^5------|
Db-------------------------------3/5-5-5-5----3-5---5-----------------|

   6:42
eb--------------------------------------------------------------------|
Bb--------------------------------------------------------------------|
Gb--------------------------------------------------------------------|
Db-----7-7-7------7-7-7------7------------------------3---------------|
Ab-3/5-5-5-5--3/5-5-5-5--3/5-5-5-----5-5-5-3------3-----5----3^5------|
Db-------------------------------3/5-5-5-5----3-5---5-----------------|

   6:48
eb--------------------------------------------------------------------|
Bb--------------------------------------------------------------------|
Gb--------------------------------------------------------------------|
Db-----7-7-7------7-7-7------7------------------------3---------------|
Ab-3/5-5-5-5--3/5-5-5-5--3/5-5-5-----5-5-5-3------3-----5----3^5------|
Db-------------------------------3/5-5-5-5----3-5---5-----------------|
Tap to rate this tab
 
# A B C D E F G H I J K L M N O P Q R S T U V W X Y Z